PrimaNota.ru - самый крупный в мире бесплатный архив песенных текстов, аккордов, табулатур и нот


Dirty Projectors - Spray Paint The Walls - таба, видео

Регистрация Запомнить меня
Войти через:  Facebook Google Twitter Vk Yandex Mail.ru

Dirty Projectors - Spray Paint The Walls - таба, видео

Печатать
Просмотров: 126
------------------------------------------------------------
SPRAY PAINT (THE WALLS) - Dirty Projectors - from RISE ABOVE
------------------------------------------------------------

Tabbed by: Kris Ellestad
Date: September 7th, 2009
Updated: September 9th, 2009
Email: knilstad@gmail.com
Site: knilstad.blogspot.com

| s slide
| h hammer-on
| p pull-off

Standard tuning
Capo on 3rd fret

As with many of these songs there are variations on a repeated progression
that differ from verse to verse and performance to performance. I've kept things
relatively simple as far as following each and every varied note in the album
version, but this tab should be accurate enough to play along with the recording
or be used as solo accompaniment.

This song is in 4/4 time and I've indicated rhythm almost exclusively in 16ths, except
for a couple bars that show 32nds for clearer notation. I would recommend ignoring this
completely and just listening to the recording while following the notes I've put down
rather than trying to count off each "1 e & a", but if it helps then all the better.


INTRO:

   1 e & a 2 e & a 3 e & a 4 e & a   1 e & a 2 e & a 3 e &  a 4 e & a 
e|---------------------------------|---------------------10p7---------|
B|---------------------8-----------|-8ppp7--------------------8-------|
G|-------------8---------------0---|---------7--------------------7---|
D|---------7---------------7-------|-------------7-----7--------------|
A|---------------------------------|(0)-------------------------------|
E|-7-------------------------------|----------------------------------|

   1 e & a 2 e & a 3 e & a 4 e & a   1 e & a 2 e & a 3 e & a 4 e & a 
e|---------------------0-----------|---------------------------------|
B|-------------0---------------0---|-3-------------------2-----------|
G|---------------------------------|-------------4---------------2---|
D|---------2---------------2-------|---------2---------------2-------|
A|---------------------------------|-0---------------0---------------|
E|-4---------------3---------------|---------------------------------|

   1 e & a 2 e & a 3 e & a 4 e & a   1 e & a 2 e & a 3 . e . & . a . 4 e & a 
e|---------------------------------|-----------------------------------------|
B|-----1-----------3---------------|-----------------------------------------|
G|---------2-----------4-----------|-0---------------------0h2h4p2p0-----0---|
D|-------------2-----------2-------|-0-------------------------------2-------|
A|-0-------------------------------|-----------------------------------------|
E|-----------------------------4---|-3---------------------------------------|

   1 e & a 2 e & a 3 e & a 4 e & a   1 e & a 2 e & a 3 e & a 4 e & a 
e|---------0-----------------------|---------1-----------------------|
B|---------0-----------------------|---------1-------3---------------|
G|---------0-----------------------|---------2-------2-------2p1-----|
D|---------2-----------------------|---------------------3-------3---|
A|-3-------------------------------|-----------------1---------------|
E|-3-------------------------------|-1-----------1-------------------|

   1 e & a 2 e & a 3 e & a 4 e & a   1 e & a 2 e & a 3 e & a 4 e & a 
e|-------------2-------0------s5---|-----4-------4-------------------|
B|-------------0-------0------s3---|-----3-------2-------3---3---3---|
G|------------(1)-----(1)-----s4---|-----4-------2-------4---4---4---|
D|---------------------------------|--------------------(2)-(2)-(2)--|
A|---------------------------------|---------------------------------|
E|-0-----------------------0-------|--------(0)----------------------|

   1 e & a 2 e & a 3 e & a 4 e & a   1 e & a 2 e & a 3 e & a 4 e & a 
e|-0-------------------------------|-----------------------------0---|
B|-1-------------------------------|-3---------------1---------------|
G|-2-------------------------------|-3---------------2---------------|
D|(2)------------------------------|-3---------------2---------------|
A|-0-------------------------------|-0---------------0---------------|
E|---------------------------------|---------------------------------|

   1 e & a 2 e & a 3 e & a 4 e & a   1 e & a 2 e & a 3 e & a 4 e & a 
e|---------------------------------|-0-------------------------------|
B|-1---0-------1---0-------1---0---|---------------------------------|
G|-2---0-------2---0-------2---0---|-----2-------2-------2-------2---|
D|-0---0-------0---0-------0---0---|-----2-------2-------2-------2---|
A|---------------------------------|-----2-------2-------2-------2---|
E|-3-------3---3-------3---3-------|-----0-------0-------0-------0---|

   1 e & a 2 e & a 3 e & a 4 e & a   1 e & a 2 e & a 3 e & a 4 e & a 
e|---------------------------------|---------------------------------|
B|---------------------------------|---------------------------------|
G|-----2-------2-------2-------2---|-----2-------2-------2-------2---|
D|-----2-------2-------2-------2---|-----2-------2-------2-------2---|
A|-----2-------2-------2-------2---|-----2-------2-------2-------2---|
E|-----0-------0-------0-------0---|-----0-------0-------0-------0---|

   1 e & a 2 e & a 3 e & a 4 e & a 
e|---------------------------------|
B|---------------------------------|
G|-----2-------2-------2-------2---|
D|-----2-------2-------2-------2---|
A|-----2-------2-------2-------2---|
E|-----0-------0-------0-------0---|


VERSE 1:

   1 e & a 2 e & a 3 e & a 4 e & a   1 e & a 2 e & a 3 e &  a 4 e & a 
e|---------------------------------|---------------------10p7---------|
B|---------------------8-----------|-8ppp7--------------------8-------|
G|-------------8---------------0---|---------7--------------------7---|
D|---------7---------------7-------|-------------7-----7--------------|
A|---------------------------------|(0)-------------------------------|
E|-7-------------------------------|----------------------------------|

   1 e & a 2 e & a 3 e & a 4 e & a   1 e & a 2 e & a 3 e & a 4 e & a 
e|---------------------0-----------|---------------------------------|
B|-------------0---------------0---|-3-------------------2-----------|
G|---------------------------------|-------------4---------------2---|
D|---------2---------------2-------|---------2---------------2-------|
A|---------------------------------|-0---------------0---------------|
E|-4---------------3---------------|---------------------------------|

   1 e & a 2 e & a 3 e & a 4 e & a   1 e & a 2 e & a 3 e & a 4 e & a 
e|---------------------------------|---------------------------------|
B|-----1-----------3---------------|-----0---------------0-----------|
G|---------2-----------4-----------|-0---------------------------0---|
D|-------------2-----------2-------|-0-----------------------0-------|
A|-0-------------------------------|---------------------------------|
E|-----------------------------4---|-3---------------3---------------|

   1 e & a 2 e & a 3 e & a 4 e & a   1 e & a 2 e & a 3 e & a 4 e & a 
e|---------0-----------------------|---------1-----------------------|
B|---------0-----------------------|---------1-------3---------------|
G|---------0-----------------------|---------2-------2-------2p1-----|
D|---------2-----------------------|---------------------3-------3---|
A|-3-------------------------------|-----------------1---------------|
E|-3-------------------------------|-1-----------1-------------------|

   1 e & a 2 e & a 3 e & a 4 e & a   1 e & a 2 e & a 3 e & a 4 e & a 
e|-------------2-------0------s5---|-----4-------4-------------------|
B|-------------0-------0------s3---|-----3-------2-------3---3---3---|
G|------------(1)-----(1)-----s4---|-----4-------2-------4---4---4---|
D|---------------------------------|--------------------(2)-(2)-(2)--|
A|---------------------------------|---------------------------------|
E|-0-----------------------0-------|--------(0)----------------------|


CHORUS:

   1 e & a 2 e & a 3 e & a 4 e & a   1 e & a 2 e & a 3 e & a 4 e & a 
e|-0-------------------------------|-----------------------------0---|
B|-1-------------------------------|-3---------------1---------------|
G|-2-------------------------------|-3---------------2---------------|
D|(2)------------------------------|-3---------------2---------------|
A|-0-------------------------------|-0---------------0---------------|
E|---------------------------------|---------------------------------|

   1 e & a 2 e & a 3 e & a 4 e & a   1 e & a 2 e & a 3 e & a 4 e & a 
e|---------------------------------|-0-------------------------------|
B|-1---0-------1---0-------1---0---|---------------------------------|
G|-2---0-------2---0-------2---0---|-----2-------2-------2-------2---|
D|-0---0-------0---0-------0---0---|-----2-------2-------2-------2---|
A|---------------------------------|-----2-------2-------2-------2---|
E|-3-------3---3-------3---3-------|-----0-------0-------0-------0---|

   1 e & a 2 e & a 3 e & a 4 e & a   1 e & a 2 e & a 3 e & a 4 e & a 
e|-0-------------------------------|-----------------------------0---|
B|-1-------------------------------|-3---------------1---------------|
G|-2-------------------------------|-3---------------2---------------|
D|(2)------------------------------|-3---------------2---------------|
A|-0-------------------------------|-0---------------0---------------|
E|---------------------------------|---------------------------------|

   1 e & a 2 e & a 3 e & a 4 e & a   1 e & a 2 e & a 3 e & a 4 e & a 
e|---------------------------------|-0-------------------------------|
B|-1---0-------1---0-------1---0---|---------------------------------|
G|-2---0-------2---0-------2---0---|-----2-------2-------2-------2---|
D|-0---0-------0---0-------0---0---|-----2-------2-------2-------2---|
A|---------------------------------|-----2-------2-------2-------2---|
E|-3-------3---3-------3---3-------|-----0-------0-------0-------0---|

   1 e & a 2 e & a 3 e & a 4 e & a 
e|---------------------------------|
B|---------------------------------|
G|-----2-------2-------2-------2---|
D|-----2-------2-------2-------2---|
A|-----2-------2-------2-------2---|
E|-----0-------0-------0-------0---|


INSTRUMENTAL BREAK (this guitar part is played live, not on the recording)

   1 e & a 2 e & a 3 e & a 4 e & a   1 e & a 2 e & a 3 e &  a 4 e & a 
e|---------------------------------|---------------------10p7---------|
B|---------------------8-----------|-8ppp7--------------------8-------|
G|-------------8---------------0---|---------7--------------------7---|
D|---------7---------------7-------|-------------7-----7--------------|
A|---------------------------------|(0)-------------------------------|
E|-7-------------------------------|----------------------------------|

   1 e & a 2 e & a 3 e & a 4 e & a   1 e & a 2 e & a 3 e & a 4 e & a 
e|---------------------0-----------|---------------------------------|
B|-------------0---------------0---|-3-------------------2-----------|
G|---------------------------------|-------------4---------------2---|
D|---------2---------------2-------|---------2---------------2-------|
A|---------------------------------|-0---------------0---------------|
E|-4---------------3---------------|---------------------------------|

   1 e & a 2 e & a 3 e & a 4 e & a   1 e & a 2 e & a 3 . e . & . a . 4 e & a 
e|---------------------------------|-----------------------------------------|
B|-----1-----------3---------------|-----------------------------------------|
G|---------2-----------4-----------|-0---------------------0h2h4p2p0-----0---|
D|-------------2-----------2-------|-0-------------------------------2-------|
A|-0-------------------------------|-----------------------------------------|
E|-----------------------------4---|-3---------------------------------------|

   1 e & a 2 e & a 3 e & a 4 e & a   1 e & a 2 e & a 3 e & a 4 e & a 
e|---------0-----------------------|---------1-----------------------|
B|---------0-----------------------|---------1-------3---------------|
G|---------0-----------------------|---------2-------2-------2p1-----|
D|---------2-----------------------|---------------------3-------3---|
A|-3-------------------------------|-----------------1---------------|
E|-3-------------------------------|-1-----------1-------------------|

   1 e & a 2 e & a 3 e & a 4 e & a   1 e & a 2 e & a 3 e & a 4 e & a 
e|-------------2-------0------s5---|-----4-------4-------------------|
B|-------------0-------0------s3---|-----3-------2-------3---3---3---|
G|------------(1)-----(1)-----s4---|-----4-------2-------4---4---4---|
D|---------------------------------|--------------------(2)-(2)-(2)--|
A|---------------------------------|---------------------------------|
E|-0-----------------------0-------|--------(0)----------------------|


VERSE 2:

   1 e & a 2 e & a 3 e & a 4 e & a   1 e & a 2 e & a 3 e &  a 4 e & a 
e|---------------------------------|---------------------10p7---------|
B|---------------------8-----------|-8ppp7--------------------8-------|
G|-------------8---------------0---|---------7--------------------7---|
D|---------7---------------7-------|-------------7-----7--------------|
A|---------------------------------|(0)-------------------------------|
E|-7-------------------------------|----------------------------------|

   1 e & a 2 e & a 3 e & a 4 e & a   1 e & a 2 e & a 3 e & a 4 e & a 
e|---------------------0-----------|---------------------------------|
B|-------------0---------------0---|-3-------------------2-----------|
G|---------------------------------|-------------4---------------2---|
D|---------2---------------2-------|---------2---------------2-------|
A|---------------------------------|-0---------------0---------------|
E|-4---------------3---------------|---------------------------------|

   1 e & a 2 e & a 3 e & a 4 e & a   1 e & a 2 e & a 3 . e . & . a . 4 e & a 
e|---------------------------------|-----------------------------------------|
B|-----1-----------3---------------|-----------------------------------------|
G|---------2-----------4-----------|-0---------------------0h2h4p2p0-----0---|
D|-------------2-----------2-------|-0-------------------------------2-------|
A|-0-------------------------------|-----------------------------------------|
E|-----------------------------4---|-3---------------------------------------|

   1 e & a 2 e & a 3 e & a 4 e & a   1 e & a 2 e & a 3 e & a 4 e & a 
e|---------0-----------------------|---------1-----------------------|
B|---------0-----------------------|---------1-------3---------------|
G|---------0-----------------------|---------2-------2-------2p1-----|
D|---------2-----------------------|---------------------3-------3---|
A|-3-------------------------------|-----------------1---------------|
E|-3-------------------------------|-1-----------1-------------------|

   1 e & a 2 e & a 3 e & a 4 e & a   1 e & a 2 e & a 3 e & a 4 e & a 
e|-------------2-------0------s5---|-----4-------4-------------------|
B|-------------0-------0------s3---|-----3-------2-------3---3---3---|
G|------------(1)-----(1)-----s4---|-----4-------2-------4---4---4---|
D|---------------------------------|--------------------(2)-(2)-(2)--|
A|---------------------------------|---------------------------------|
E|-0-----------------------0-------|--------(0)----------------------|

   1 e & a 2 e & a 3 e & a 4 e & a   1 e & a 2 e & a 3 e & a 4 e & a 
e|---------------------------------|-2-------------------------------|
B|---------------------------------|-3-------------------------------|
G|---------------------------------|-0-------------------------------|
D|-2-------------------------------|---------------------------------|
A|-2-------------------------------|---------------------------------|
E|-0-------------------------------|(3)------------------------------|

   1 e & a 2 e & a 3 e & a 4 e & a   1 e & a 2 e & a 3 e & a 4 e & a 
e|---------------------------------|---------1-----------------------|
B|-0-------------------------------|---------1-------3---------------|
G|-0-------------------------------|---------2-------2-------2p1-----|
D|-2-------------------------------|---------------------3-------3---|
A|-3-------------------------------|-----------------1---------------|
E|-3-------------------------------|-1-----------1-------------------|

   1 e & a 2 e & a 3 e & a 4 e & a   1 e & a 2 e & a 3 e & a 4 e & a 
e|-------------2-------0------s5---|-----4-------4-------------------|
B|-------------0-------0------s3---|-----3-------2-------3---3---3---|
G|------------(1)-----(1)-----s4---|-----4-------2-------4---4---4---|
D|---------------------------------|--------------------(2)-(2)-(2)--|
A|---------------------------------|---------------------------------|
E|-0-----------------------0-------|--------(0)----------------------|


CHORUS and OUTRO:

   1 e & a 2 e & a 3 e & a 4 e & a   1 e & a 2 e & a 3 e & a 4 e & a 
e|-0-------------------------------|-----------------------------0---|
B|-1-------------------------------|-3---------------1---------------|
G|-2-------------------------------|-3---------------2---------------|
D|(2)------------------------------|-3---------------2---------------|
A|-0-------------------------------|-0---------------0---------------|
E|---------------------------------|---------------------------------|

   1 e & a 2 e & a 3 e & a 4 e & a   1 e & a 2 e & a 3 e & a 4 e & a 
e|---------------------------------|-0-------------------------------|
B|-1---0-------1---0-------1---0---|---------------------------------|
G|-2---0-------2---0-------2---0---|-----2-------2-------2-------2---|
D|-0---0-------0---0-------0---0---|-----2-------2-------2-------2---|
A|---------------------------------|-----2-------2-------2-------2---|
E|-3-------3---3-------3---3-------|-----0-------0-------0-------0---|

   1 e & a 2 e & a 3 e & a 4 e & a   1 e & a 2 e & a 3 e & a 4 e & a 
e|-0-------------------------------|-----------------------------0---|
B|-1-------------------------------|-3---------------1---------------|
G|-2-------------------------------|-3---------------2---------------|
D|(2)------------------------------|-3---------------2---------------|
A|-0-------------------------------|-0---------------0---------------|
E|---------------------------------|---------------------------------|

   1 e & a 2 e & a 3 e & a 4 e & a   1 e & a 2 e & a 3 e & a 4 e & a 
e|---------------------------------|-0-------------------------------|
B|-1---0-------1---0-------1---0---|---------------------------------|
G|-2---0-------2---0-------2---0---|-----2-------2-------2-------2---|
D|-0---0-------0---0-------0---0---|-----2-------2-------2-------2---|
A|---------------------------------|-----2-------2-------2-------2---|
E|-3-------3---3-------3---3-------|-----0-------0-------0-------0---|

   1 e & a 2 e & a 3 e & a 4 e & a   1 e & a 2 e & a 3 e & a 4 e & a 
e|-0-------------------------------|-----------------------------0---|
B|-1-------------------------------|-3---------------1---------------|
G|-2-------------------------------|-3---------------2---------------|
D|(2)------------------------------|-3---------------2---------------|
A|-0-------------------------------|-0---------------0---------------|
E|---------------------------------|---------------------------------|

   1 e & a 2 e & a 3 e & a 4 e & a   1 e & a 2 e & a 3 e & a 4 e & a 
e|---------------------------------|-0-------------------------------|
B|-1---0-------1---0-------1---0---|---------------------------------|
G|-2---0-------2---0-------2---0---|-----2-------2-------2-------2---|
D|-0---0-------0---0-------0---0---|-----2-------2-------2-------2---|
A|---------------------------------|-----2-------2-------2-------2---|
E|-3-------3---3-------3---3-------|-----0-------0-------0-------0---|

   1 e & a 2 e & a 3 e & a 4 e & a   1 e & a 2 e & a 3 e & a 4 e & a 
e|-0-------------------------------|-----------------------------0---|
B|-1-------------------------------|-3---------------1---------------|
G|-2-------------------------------|-3---------------2---------------|
D|(2)------------------------------|-3---------------2---------------|
A|-0-------------------------------|-0---------------0---------------|
E|---------------------------------|---------------------------------|

   1 e & a 2 e & a 3 e & a 4 e & a   1 e & a 2 e & a 3 e & a 4 e & a 
e|---------------------------------|-0-------------------------------|
B|-1---0-------1---0-------1---0---|---------------------------------|
G|-2---0-------2---0-------2---0---|-----2-------2-------2-------2---|
D|-0---0-------0---0-------0---0---|-----2-------2-------2-------2---|
A|---------------------------------|-----2-------2-------2-------2---|
E|-3-------3---3-------3---3-------|-----0-------0-------0-------0---|

   1 e & a 2 e & a 3 e & a 4 e & a   1 e & a 2 e & a 3 e & a 4 e & a  
e|---------------------------------|---------------------------------|
B|---------------------------------|---------------------------------|
G|-----2-------2-------2-------2---|-----2-------2-------2-------2---|
D|-----2-------2-------2-------2---|-----2-------2-------2-------2---|
A|-----2-------2-------2-------2---|-----2-------2-------2-------2---|
E|-----0-------0-------0-------0---|-----0-------0-------0-------0---|

   crescendo and ritard - - - - - - - - - - - - - - - - - - - - - - -
   1 e & a 2 e & a 3 e & a 4 e & a   1 e & a 2 e & a 3 e & a 4 e & a  
e|---------------------------------|---------------------------------|
B|---------------------------------|---------------------------------|
G|-----2-------2-------2-------2---|-----2-------2-------2-------2---|
D|-----2-------2-------2-------2---|-----2-------2-------2-------2---|
A|-----2-------2-------2-------2---|-----2-------2-------2-------2---|
E|-----0-------0-------0-------0---|-----0-------0-------0-------0---|

   - - - - - - - - - - - - - - - -
   1 e & a 2 e & a 3 e & a 4 e & a 
e|---------------------------------||
B|---------------------------------||
G|-----2-------2-------2-------2---||
D|-----2-------2-------2-------2---||
A|-----2-------2-------2-------2---||
E|-----0-------0-------0-------0---||


Добавлено: 31.07.2012
Другие материалы по этой песне:
  • Аккорды и текст

Страница создана 31.07.2012
http://primanota.ru/dirty-projectors/spray-paint-the-walls-chords.htm
Привет, Гость.
Предлагаем пройти революционный курс по гитаре.
Подарок от PrimaNota.Ru, забирай!