PrimaNota.ru - самый крупный в мире бесплатный архив песенных текстов, аккордов, табулатур и нот


Dirty Projectors - Ground Underfoot - таба, видео

Регистрация Запомнить меня
Войти через:  Facebook Google Twitter Vk Yandex Mail.ru

Dirty Projectors - Ground Underfoot - таба, видео

Печатать
Просмотров: 87
--------------------------------------------------------
GROUND UNDERFOOT - Dirty Projectors - from THE GLAD FACT
--------------------------------------------------------

Tabbed by: Kris Ellestad
Date: September 7th, 2009
Email: knilstad@gmail.com
Site: knilstad.blogspot.com

| s slide
| t tied note

Standard tuning
In 12/8 time

All chords are strummed.

INTRO:

   1  2  3  4   1  2  3  4   1  2  3  4   1  2  3  4
e|------------|------------|------------|------------|
B|-7-----8----|-6----------|-7-----5----|------------|
G|-6-----7----|-6----------|-6-----6----|-9-----7----|
D|-7-----9----|-6----------|-7-----7----|-8-----8----|
A|------------|------------|------------|-9-----9----|
E|-5--5--7--7-|-7--7--7--7-|-5--5--5--5-|-6--6--6--6-|

   1  2  3  4   1  2  3  4   1  2  3  4   1  2  3  4
e|------------|------------|------------|------------|
B|------------|-8----------|-6-----9----|-6----------|
G|-7-----7----|-7----------|-6-----6----|-6----------|
D|-9-----11---|-9----------|-6-----6----|-6----------|
A|-9-----9----|------------|------------|------------|
E|-7--7--7--7-|-7--7--7--7-|-7--7--7--7-|-7--7--7--7-|


VERSE 1:

   1  2  3  4   1  2  3  4   1  2  3  4   1  2  3  4
e|------------|------------|------------|------------|
B|-2----------|-2----------|-2----------|-3----------|
G|-2----------|-2----------|-3----------|-4----------|
D|-4----------|-4----------|-2----------|-4----------|
A|------------|------------|------------|-2--2--2--2-|
E|-2--2--2--2-|-2--2--2--2-|-2--2--2--2-|------------|

   1  2  3  4   1  2  3  4   1  2  3  4   1  2  3  4
e|------------|------------|------------|------------|
B|-3-----8----|-6----------|-9-----6----|-7-----7----|
G|-4-----7----|-6----------|-6-----6----|-6-----6----|
D|-4-----9----|-6----------|-6-----6----|-7-----7----|
A|------------|------------|------------|------------|
E|-4--3ss7--7-|-7--7--7--7-|-7--7--7--7-|-5--5--5--5-|

   1  2  3  4   1  2  3  4   1  2  3  4   1  2  3  4
e|------------|------------|------------|------------|
B|-5-----5----|------------|------------|------------|
G|-6-----6----|-9-----9----|-9-----8----|-7-----7----|
D|-7-----7----|-8-----8----|-9-----9----|-9-----7----|
A|------------|-9-----9----|-9-----9----|-9-----5--5-|
E|-5--5--5--5-|-6--6--6--6-|-7--7--7--7-|-7--7-------|

   1  2  3  4   1  2  3  4
e|------------|------------|
B|-3-----3----|-3-----3----|
G|-4-----4----|-4-----4----|
D|-3-----3----|-3-----3----|
A|------------|------------|
E|-3--3--3--3-|-3--3--3--3-|


INTERLUDE:

   1  2  3  4   1  2  3  4   1  2  3  4   1  2  3  4
e|------------|------------|------------|------------|
B|-7-----8----|-6----------|-7-----5----|------------|
G|-6-----7----|-6----------|-6-----6----|-9-----7----|
D|-7-----9----|-6----------|-7-----7----|-8-----8----|
A|------------|------------|------------|-9-----9----|
E|-5--5--7--7-|-7--7--7--7-|-5--5--5--5-|-6--6--6--6-|

   1  2  3  4   1  2  3  4   1  2  3  4   1  2  3  4
e|------------|------------|------------|------------|
B|------------|-8----------|-6-----9----|-6----------|
G|-7-----7----|-7----------|-6-----6----|-6----------|
D|-9-----11---|-9----------|-6-----6----|-6----------|
A|-9-----9----|------------|------------|------------|
E|-7--7--7--7-|-7--7--7--7-|-7--7--7--7-|-7--7--7--7-|


VERSE 2:

   1  2  3  4   1  2  3  4   1  2  3  4   1  2  3  4
e|------------|------------|------------|------------|
B|-7-----2----|-2-----2----|-2-----2----|-3-----3----|
G|-6-----2----|-2-----2----|-3-----3----|-4-----4----|
D|-7-----4----|-4-----4----|-2-----2----|-4-----4----|
A|------------|------------|------------|-2--2--2--2-|
E|-5--5--2--2-|-2--2--2--2-|-2--2--2--2-|------------|

   1  2  3  4   1  2  3  4   1  2  3  4   1  2  3  4
e|------------|------------|------------|------------|
B|-3-----8----|-6----------|-9-----6----|-7----------|
G|-4-----7----|-6----------|-6-----6----|-6----------|
D|-4-----9----|-6----------|-6-----6----|-7----------|
A|------------|------------|------------|------------|
E|-4--3ss7--7-|-7--7--7--7-|-7--7--7--7-|-5--5--5--5-|

   1  2  3  4   1  2  3  4   1  2  3  4   1  2  3  4
e|------------|------------|------------|------------|
B|-5----------|------------|------------|------------|
G|-6----------|-9----------|-9-----8----|-7-----7----|
D|-7----------|-8----------|-9-----9----|-9-----7----|
A|------------|-9----------|-9-----9----|-9-----5--5-|
E|-5--5--5--5-|-6--6--6--6-|-7--7--7--7-|-7--7-------|

   1  2  3  4   1  2  3  4   1  2  3  4
e|------------|------------|------------|
B|-3-----3----|-2-----2----|-2-----2----|
G|-4-----4----|-3-----3----|-3-----3----|
D|-3-----3----|-2-----2----|-2-----2----|
A|------------|------------|------------|
E|-3--3--3--3-|-2--2--2--2-|-2--2--2--2-|


VERSE 3 (key change, new material):

   1  2  3  4   1  2  3  4   1  2  3  4   1  2  3  4
e|------------|------------|------------|------------|
B|------------|------------|------------|------------|
G|-8-----8----|-8-----8----|-8-----8----|-8-----8----|
D|-8-----8----|-8-----8----|-8-----8----|-8-----8----|
A|-9-----9----|-9-----9----|-9-----9----|-9-----9----|
E|-7--7--7--7-|-7--7--7--7-|-7--7--7--7-|-7--7--7--7-|

   1  2  3  4   1  2  3  4   1  2  3  4   1  2  3  4
e|------------|------------|------------|------------|
B|------------|------------|------------|------------|
G|-4-----3----|------------|-4----------|-3-----3----|
D|-6-----6----|------------|-6----------|-6-----6----|
A|-4-----4----|------------|-4----------|-4-----4----|
E|-6--6--6--6-|-6--6--6--6-|-6--6--6--6-|-6--6--6--4-|

   1  2  3  4   1  2  3  4   1  2  3  4   1  2  3  4
e|------------|------------|------------|------------|
B|------------|------------|------------|------------|
G|-4----------|-4----------|-4-----4----|-4-----4----|
D|-6----------|-6----------|-6-----6----|-6-----6----|
A|-6----------|-6----------|-6-----6----|-6-----6----|
E|-0--0--0--0-|-0--0--0--4-|-0--0--0--0-|-0--4--0--4-|

   1  2  3  4   1 & a 2 & a 3 & a 4 & a   1 & a 2 & a 3 & a 4 & a   1 & a 2 & a 3 & a 4 
a
e|------------|-------------------------|-------------------------|-------------------------|
B|------------|-------------------------|-------------------------|-------------------------|
G|----4--4----|-4-----------------------|-------------------------|-------------------------|
D|----4--4----|-4-----------------------|-------------------------|-------------------------|
A|----6--6----|-6-----------------------|-------------------------|-------------------------|
E|-7--------7-|-7-----7-----7-----7---7s|s8-----7-----7-----7---7s|s6---6s7---7s8---8s7---7t|


VERSE 4:

   1  2  3  4   1  2  3  4   1  2  3  4   1  2  3  4
e|------------|------------|------------|------------|
B|------------|------------|------------|------------|
G|-------8----|-8-----8----|-8-----8----|-8-----8----|
D|-------8----|-8-----8----|-8-----8----|-8-----8----|
A|-------9----|-9-----9----|-9-----9----|-9-----9----|
E|t7--7--7--7-|-7--7--7--7-|-7--7--7--7-|-7--7--7--7-|

   1  2  3  4   1  2  3  4   1  2  3  4   1  2  3  4
e|------------|------------|------------|------------|
B|------------|------------|------------|------------|
G|-4-----3----|-3-----3----|-4-----4----|-3-----3----|
D|-6-----6----|-6-----6----|-6-----6----|-6-----6----|
A|-4-----4----|-4-----4----|-4-----4----|-4-----4----|
E|-6--6--6--6-|-6--6--6--6-|-6--6--6--6-|-6--6--6--4-|

   1  2  3  4   1  2  3  4   1  2  3  4   1  2  3  4
e|------------|------------|------------|------------|
B|------------|------------|------------|------------|
G|-4-----4----|-4-----4----|-4-----4----|-4-----4----|
D|-6-----6----|-6-----6----|-6-----6----|-6-----6----|
A|-6-----6----|-6-----6----|-6-----6----|-6-----6----|
E|-0--0--0--0-|-0--0--0--4-|-0--0--0--4-|-0--4--0--0-|

   1  2  3  4   1 & a 2 & a 3 & a 4 & a   1 & a 2 & a 3 & a 4 & a   1 & a 2 & a 3 & a 4 
a
e|------------|-------------------------|-------------------------|-------------------------|
B|------------|-------------------------|-------------------------|-------------------------|
G|----4--4----|-4-----------------4-----|-------------------------|-------------------------|
D|----4--4----|-4-----------------4-----|-------------------------|-------------------------|
A|----6--6----|-6-----------------6-----|-------------------------|-------------------------|
E|-7--------7-|-7-----7-----7-----7---7s|s8-----7-----7-----7---7s|s6---6s7---7s8---8s7---7-|

   1  2  3  4
e|------------||
B|------------||
G|------------||
D|-4----------||
A|------------||
E|-7----------||
Добавлено: 09.07.2012
Другие материалы по этой песне:
  • Аккорды и текст

Страница создана 09.07.2012
http://primanota.ru/dirty-projectors/ground-underfoot-chords.htm
Привет, Гость.
Предлагаем пройти революционный курс по гитаре.
Подарок от PrimaNota.Ru, забирай!