PrimaNota.ru - самый крупный в мире бесплатный архив песенных текстов, аккордов, табулатур и нот


Dirty Projectors - Fucked For Life - таба, видео

Регистрация Запомнить меня
Войти через:  Facebook Google Twitter Vk Yandex Mail.ru

Dirty Projectors - Fucked For Life - таба, видео

Печатать
Просмотров: 101
Уроки эстрадного вокала в Санкт-Петербурге
Fucked for Life
Dirty Projectors
Post-New Attitude EP era

Tabbed by Joel A.
(blackrivermood@wowway.com)

Sources:
Daytrotter Session 5/7/2007
Pitchfork TV Special
Live videos

Standard tuning
Capo 5

This is how they currently play the song. Long riff was stretched out to better explain 
counting.
Try to follow the change between the longer counts and shorter counts.
Also, I got the bass octaves from the Pitchfork video although he plays them in other 
videos, but it is harder to hear.
Just listen to the track for the structure of the song. I recommend the Daytrotter session.

INTRO/VERSES:

e|-------------------------------------------------------------------|
B|---------2---------------4---------------2-------------------------|
G|-1-------2-------1-------4-------1-------2-------1-----------------|
D|-2---------------2-------4-------2---------------2-----------------|
A|---0-------0-------0-------0-------0-------0-------0---------------|
E|-----------------------------------------------------------25202---| <-- varies
   a 1 e & a 2 e & a 3 e & a 4 e & a 1 e & a 2 e & a 3 e & a 4 e & a

e|-----------------------------------------------------------------|
B|-0h3h5-------3---0--h3---------------------------0--h3---5-------|
G|-----------------------------420---------0--h2-------------------|
D|---------------------------------2-------------------0---2-------|
A|-----------------------------------------0-------2---------------|
E|-----------------------------------------------------------------|
   1...e...&...a...2...e...&...a...3...e...&...a...4...e...&...a...

                              |---| note triplet group


e|-----------------------------------------------------------------|
B|-----------------------------------------------------------------|
G|-----1g2-----0---------------------------------------------------|
D|-----------------1--h2-----------2---6--s7-------6s7s6-----------|
A|-----0-----------------------------------------------------------|
E|-----------------0---------------0---4--s5-------4s5s4-----------|
   1...e...&...a...2...e...&...a...3...e...&...a...4...e...&...a...

e|-----------------------------------------------------------------------------|
B|-----------------------------------------------------------------------------|
G|-----------------------------------------------------------------------------|
D|-4--s2-------0-----------------------1--h2---1h2h4-------2h4p2p1-------------|
A|-----------------1--h2-----------2-------------------------------1--h2-------|
E|-2--p0-----------0-----------------------------------------------------------|
   1...e...&...a...2...e...&...a...3...e...&...a...4...e...&...a...1...e...&...


Repeat the four lines according to the length of the verse. Transition to the chorus 
the first line.


CHORUS: Counting is adjusted for the pickup notes.

e|---------------------------------|
B|---------------------------------|
G|---9-------9-------9-------9-----|
D|-----9-------9-------9-------9---| X12
A|-7-------7-------7-------7-------|
E|---------------------------------|
   a 1 e & a 2 e & a 3 e & a 4 e &

e|---7-----------------------------|        e|---7---------------7-------------|
B|---7-----------------------------|        B|---7---------------7-------------|
G|---8-------9-------9-------9-----|        G|---8-------9-------8-------9-----|
D|---9---------9-------9-------9---| X2     D|---9---------9-----9---------9---| X2
A|-7-7-----7-------7-------7-------|        A|-7-7-----7-------7-7-----7-------|
E|---------------------------------|        E|---------------------------------|
   a 1 e & a 2 e & a 3 e & a 4 e &             a 1 e & a 2 e & a 3 e & a 4 e &


Last Chord:

e|-2---------------------------|
B|-3---------------------------|
G|-4---------------------------|
D|-4---------------------------|
A|-x---------------------------|
E|-3---------------------------|
Добавлено: 22.02.2012
Другие материалы по этой песне:
  • Аккорды и текст

Страница создана 22.02.2012
http://primanota.ru/dirty-projectors/fucked-for-life-chords.htm
Привет, Гость.
Предлагаем пройти революционный курс по гитаре.
Подарок от PrimaNota.Ru, забирай!