PrimaNota.ru - самый крупный в мире бесплатный архив песенных текстов, аккордов, табулатур и нот


Dirty Pretty Things - Wondering - текст песни, таба, бас-таба, видео

Регистрация Запомнить меня
Войти через:  Facebook Google Twitter Vk Yandex Mail.ru

Dirty Pretty Things - Wondering - текст песни, таба, бас-таба, видео

Печатать
Просмотров: 144
I think this is gd but not the proper tab but oh well:

Song: Wondering
Artist: Dirty Pretty Things
Album: Waterloo To Anywhere
Tabbed By: DBhatt (danny.b3@ntlworld.com)

Intro:

E---------------------------------------------|
B---------------------------------------------|
G--7-9-7-2-5--7-9-7-2-5-5-5-5-2-0-0-0-0-0-----|
D--7-------5--7-------5-----------------------|
A--5-------3--5-------3-----------------------|
E---------------------------------------------|

Verse:

Guitar 1

E---------------------------------------------|
B-10-8-10-8-6-5-6-8---------------------------|
G---------------------------------------------|
D---------------------------------------------|
A---------------------------------------------|
E---------------------------------------------|

Guitar 2:

E--------------------------------------------------|
B--------------------------------------------------|
G-----------7-7-7-7-0------------------------------|
D-3-3-3-3-0-7-7-7-7-0------------------------------|
A-3-3-3-3-0-5-5-5-5-0------------------------------|
E-1-1-1-1-0----------------------------------------|

Chorus:

Still it's good to be in love..
E------------------------------------------------------------------------|
B------------------------------------------------------------------------|
G-7--------5--------7-------5------7---9-9-9-9--7--9-9-9-9---------------|
D-7--------5--------7-------5------7---9-9-9-9--7--9-9-9-9---------------|
A-5--------3--------5-------3------5---7-7-7-7--5--7-7-7-7---------------|
E------------------------------------------------------------------------|

Verse:

Guitar 1

E---------------------------------------------|
B-10-8-10-8-6-5-6-8---------------------------|
G---------------------------------------------|
D---------------------------------------------|
A---------------------------------------------|
E---------------------------------------------|

Guitar 2:

E--------------------------------------------------|
B--------------------------------------------------|
G-----------7-7-7-7-0------------------------------|
D-3-3-3-3-0-7-7-7-7-0------------------------------|
A-3-3-3-3-0-5-5-5-5-0------------------------------|
E-1-1-1-1-0----------------------------------------|

Chorus:

Still it's good to be in love..
E------------------------------------------------------------------------|
B--------------------------------------9-9-9-9-----9-9-9-9---------------|
G-7--------5--------7-------5------7---9-9-9-9--7--9-9-9-9---------------|
D-7--------5--------7-------5------7---9-9-9-9--7--9-9-9-9---------------|
A-5--------3--------5-------3------5---7-7-7-7--5--7-7-7-7---------------|
E------------------------------------------------------------------------|

Solo:

Distorted sorry cudnt tab,last chords are


E-------------------------|
B--9--9-9-9---------------|
G--9--9-9-9---------------|
D--9--9-9-9---------------|
A--7--7-7-7---------------|
E-------------------------|

Verse:

Guitar 1

E---------------------------------------------|
B-10-8-10-8-6-5-6-8---------------------------|
G---------------------------------------------|
D---------------------------------------------|
A---------------------------------------------|
E---------------------------------------------|

Guitar 2:

E--------------------------------------------------|
B--------------------------------------------------|
G-----------7-7-7-7-0------------------------------|
D-3-3-3-3-0-7-7-7-7-0------------------------------|
A-3-3-3-3-0-5-5-5-5-0------------------------------|
E-1-1-1-1-0----------------------------------------|

Chorus:

Still it's good to be in love..
E------------------------------------------------------------------------|
B--------------------------------------9-9-9-9-----9-9-9-9---------------|
G-7--------5--------7-------5------7---9-9-9-9--7--9-9-9-9---------------|
D-7--------5--------7-------5------7---9-9-9-9--7--9-9-9-9---------------|
A-5--------3--------5-------3------5---7-7-7-7--5--7-7-7-7---------------|
E------------------------------------------------------------------------|

             ^
             |
             |
             |
As many times as the chorus repeats but end on

E---------------------|
B---12--12-12-10------|
G---12--12-12-12------|
D---12--12-12-12------|
A---10--10-10-12------|
E---------------------|

Outro
E---------------------------------------------|
B---------------------------------------------|
G--7-9-7-2-5--7-9-7-2-5-5-5-5-2-0-0-0-0-0-----|
D--7-------5--7-------5-----------------------|
A--5-------3--5-------3-----------------------|
E---------------------------------------------|
Intro
Verse
Chorus
Verse
Chorus
Solo (Sorry)
Verse
Chorus
Outro

Lyrics (I think):

Verse:
We were so pretty, now this is it
You and I are too young for this, no blood, no love, nor smit oh
But still theres something there to blame it from
A flash of instant whereabouts youll miss it and its gone

Chorus:
Still it's good to be in love with someone
When youve always had to be with noone
Shes sayed everyones a story of their own
But if we dont leave now well find ourselves with no way home

Verse 2:
And so we stole but all bangered and confused
First it wasnt pretty but well soon undig the rouse?
But weve got something behind the ways
All the boys together and there knees up on the way oh

Chorus:
Still it's good to be in love with someone
When youve always had to be with noone
Shes sayed everyones a story of their own
But if we dont leave now well find ourselves with no way home,find ourselves with no way home

Solo

Verse 3:

And it occured to me i think im land with rome
No more need to question Ill cry for what i know
But now its over so know its done
The English sun is setting and the rude boys on the run oh

Chorus:
Still it's good to be in love with someone
When youve always had to be with noone
I guess that means to remind me everyday
The lives weve lost weve lost were broken on the way
Testin tomorow and well always drink (?)
But if we dont leave now well find ourselves with no way home
Just the thing weve always known

Plz Comment (Nice :))
DB
Добавлено: 15.11.2013
Другие материалы по этой песне:

Страница создана 28.06.2012
http://primanota.ru/dirty-pretty-things/wondering-chords.htm
Привет, Гость.
Предлагаем пройти революционный курс по гитаре.
Подарок от PrimaNota.Ru, забирай!