PrimaNota.ru - самый крупный в мире бесплатный архив песенных текстов, аккордов, табулатур и нот


Dirty Pretty Things - The North - текст песни, таба, видео

Регистрация Запомнить меня
Войти через:  Facebook Google Twitter Vk Yandex Mail.ru

Dirty Pretty Things - The North - текст песни, таба, видео

Печатать
Просмотров: 99
    Dirty Pretty Things
        The North
Barat/RossomandoHammond/Powell

Guitar 1: Anthony Rossomando (Stan) Lead Electric

Verse 1:

Stan:

  4 more rotations and no on will hurt,
e------------------------------------------------|
B----5-----5-----5-----5-----5-----5-----5-----5-|
G-6-----6-----6-----6-----6-----6-----6-----6----|
D------------------------------------------------|
A------------------------------------------------|
E------------------------------------------------|

    these  are  the  things I dream of.
e------------------------------------------------|
B----5-----5-----5-----5-----5-----5-----5-----5-|
G-6-----6-----6-----6-----6-----6-----6-----6----|
D------------------------------------------------|
A------------------------------------------------|
E------------------------------------------------|

  I've been thinking thru the drinking,
e--------------------------------------|
B---------------10-------10-----10-----|
G-----------11-------11------9---------|
D--------------------------------------|
A--------------------------------------|
E--------------------------------------|

  though my confidence is shrinking,
e-----------------------------------|
B----10-------10----10----10-----10-|
G--9--------7-----7-----9-----11----|
D-----------------------------------|
A-----------------------------------|
E-----------------------------------|

             that   I   might  be fine.
e------------------------------------------------|
B----5-----5-----5-----5-----5-----5-----5-----5-|
G-6-----6-----6-----6-----6-----6-----6-----6----|
D------------------------------------------------|
A------------------------------------------------|
E------------------------------------------------|

  The North....    would be,     so proud of you.
   E                G     A
e-12---------------10----14----------------------|
B-12---------------12----16----------------------|
G-13---------------12----16----------------------|
D-14---------------12----16------------14-16-----|
A-14---------------10----14------14h16--------17-|
E-12---------------------------------------------|

e------------------------------------------------|
B----5-----5-----5-----5-----5-----5-----5-----5-|
G-6-----6-----6-----6-----6-----6-----6-----6----|
D------------------------------------------------|
A------------------------------------------------|
E------------------------------------------------|

Chorus:

Stan:

  Ooh....                               What would
e---------------------------------------------------|
B----10-----10----10----10----10----10----10-----10-|
G-11-----11-----9-----9-----7-----7-----9-----11----|
D---------------------------------------------------|
A---------------------------------------------------|
E---------------------------------------------------|

  you  do?
e------------------------------------------------|
B----5-----5-----5-----5-----5-----5-----5-----5-|
G-6-----6-----6-----6-----2-----2-----2-----2----|
D------------------------------------------------|
A------------------------------------------------|
E------------------------------------------------|

  Ooh....                               When stars
e---------------------------------------------------|
B----10-----10----10----10----10----10----10-----10-|
G-11-----11-----9-----9-----7-----7-----9-----11----|
D---------------------------------------------------|
A---------------------------------------------------|
E---------------------------------------------------|

 fall from the sky and yr only 2 seconds from cry-ing.
e----------------------------------------------------------------|
B-5---5----5---5-----5--5--5-5-5-5-5-5-5-5--5-5-5-5-2-2-2--------|
G-6---6----6---4-----4--4--6-6-6-4-4-4-6-6--6-4-4-4-2-2-2--1-1-1-|
D-7---7----7---2-----2--2--7-7-7-2-2-2-7-7--7-2-2-2-2-2-2--2-2-2-|
A----------------------------------------------------------2-2-2-|
E----------------------------------------------------------------|

  Yeah
    E
e--12--------------------------|
B--12--------------------------|
G--13-----------16--\--14-\-13-|
D--14--------------------------|
A--14--------------------------|
E--12--------------------------|

Verse 2:

Stan:

  Parafin,  anadin,  sick as  disguise,      so we
e------------------------------------------------|
B----5-----5-----5-----5-----5-----5-----5-----5-|
G-6-----6-----6-----6-----6-----6-----6-----6----|
D------------------------------------------------|
A------------------------------------------------|
E------------------------------------------------|

 take our snappy patterns and use them as knives.
e------------------------------------------------|
B----5-----5-----5-----5-----5-----5-----5-----5-|
G-6-----6-----6-----6-----6-----6-----6-----6----|
D------------------------------------------------|
A------------------------------------------------|
E------------------------------------------------|

  Now there's nothing left for me to try,
e----------------------------------------|
B---------------10-------10-------10-----|
G-----------11-------11--------9---------|
D----------------------------------------|
A----------------------------------------|
E----------------------------------------|

my own ingnorance and humble pie,
e-----------------------------------|
B----10------10----10-----10-----10-|
G--9------7-----7------9------11----|
D-----------------------------------|
A-----------------------------------|
E-----------------------------------|

              but   I'll   be  alright.
e------------------------------------------------|
B----5-----5-----5-----5-----5-----5-----5-----5-|
G-6-----6-----6-----6-----6-----6-----6-----6----|
D------------------------------------------------|
A------------------------------------------------|
E------------------------------------------------|

  The North....    would be,     so proud of you.
   E                G     A
e-12---------------10----14----------------------|
B-12---------------12----16----------------------|
G-13---------------12----16----------------------|
D-14---------------12----16------------14-16-----|
A-14---------------10----14------14h16--------17-|
E-12---------------------------------------------|

Bridge:

Stan:

e---------------------------------------------|
B---------------------------------------------|
G-14---13---16--/--18-----14---13---16--/--18-|
D---------------------------------------------|
A---------------------------------------------|
E---------------------------------------------|

e---------------------------------------------|
B---------------------------------------------|
G-14---13---16--/--18-----14---13---16--/--18-|
D---------------------------------------------|
A---------------------------------------------|
E---------------------------------------------|

e-------------------------------------------------|
B-17---------------17-----------17-------17-------|
G-----18---------------18----------18-------18----|
D---------19---------------19---------19-------19-|
A-------------------------------------------------|
E-------------------------------------------------|

Verse 3:

Stan:

  So I'll see you tomorrow shall we call it 1,
e------------------------------------------------|
B----5-----5-----5-----5-----5-----5-----5-----5-|
G-6-----6-----6-----6-----6-----6-----6-----6----|
D------------------------------------------------|
A------------------------------------------------|
E------------------------------------------------|

Try to get the sparx to light seeing as they've gone.
e------------------------------------------------|
B----5-----5-----5-----5-----5-----5-----5-----5-|
G-6-----6-----6-----6-----6-----6-----6-----6----|
D------------------------------------------------|
A------------------------------------------------|
E------------------------------------------------|

        You don't know how to value
e----------------------------------------|
B---------------10-------10-------10-----|
G-----------11-------11--------9---------|
D----------------------------------------|
A----------------------------------------|
E----------------------------------------|

that, but I know how to value that,
e-----------------------------------|
B----10------10----10-----10-----10-|
G--9------7-----7------9------11----|
D-----------------------------------|
A-----------------------------------|
E-----------------------------------|

              I think we'll be fine.
e------------------------------------------------|
B----5-----5-----5-----5-----5-----5-----5-----5-|
G-6-----6-----6-----6-----6-----6-----6-----6----|
D------------------------------------------------|
A------------------------------------------------|
E------------------------------------------------|

  The North....    would be,     so proud of you.
   E                G     A
e-12---------------10----14----------------------|
B-12---------------12----16----------------------|
G-13---------------12----16----------------------|
D-14---------------12----16------------14-16-----|
A-14---------------10----14------14h16--------17-|
E-12---------------------------------------------|

e------------------------------------------------|
B----5-----5-----5-----5-----5-----5-----5-----5-|
G-6-----6-----6-----6-----2-----2-----2-----2----|
D------------------------------------------------|
A------------------------------------------------|
E------------------------------------------------|

Chorus:

Stan:

  Ooh....                               What would
e---------------------------------------------------|
B----10-----10----10----10----10----10----10-----10-|
G-11-----11-----9-----9-----7-----7-----9-----11----|
D---------------------------------------------------|
A---------------------------------------------------|
E---------------------------------------------------|

  you  do?
e------------------------------------------------|
B----5-----5-----5-----5-----5-----5-----5-----5-|
G-6-----6-----6-----6-----2-----2-----2-----2----|
D------------------------------------------------|
A------------------------------------------------|
E------------------------------------------------|

  Ooh....                               When stars
e---------------------------------------------------|
B----10-----10----10----10----10----10----10-----10-|
G-11-----11-----9-----9-----7-----7-----9-----11----|
D---------------------------------------------------|
A---------------------------------------------------|
E---------------------------------------------------|

 fall from the sky and yr only 2 seconds from cry-ing.
e----------------------------------------------------------------|
B-5---5----5---5-----5--5--5-5-5-5-5-5-5-5--5-5-5-5-2-2-2--------|
G-6---6----6---4-----4--4--6-6-6-4-4-4-6-6--6-4-4-4-2-2-2--1-1-1-|
D-7---7----7---2-----2--2--7-7-7-2-2-2-7-7--7-2-2-2-2-2-2--2-2-2-|
A----------------------------------------------------------2-2-2-|
E----------------------------------------------------------------|

  Yeah
    E
e--12--------------------------|
B--12--------------------------|
G--13-----------16--\--14-\-13-|
D--14--------------------------|
A--14--------------------------|
E--12--------------------------|

Outro:

e--------------------------------------|
B--------------------------------------|
G-14---13---16--/--18-----14---13------|
D-----------------------------------14-|
A--------------------------------------|
E--------------------------------------|

e--------------------------------------|
B--------------------------------------|
G-14---13---16--/--18-----14---13------|
D-----------------------------------14-|
A--------------------------------------|
E--------------------------------------|

e--------------------------------------|
B--------------------------------------|
G-14---13---16--/--18-----14---13------|
D-----------------------------------14-|
A--------------------------------------|
E--------------------------------------|

e--------------------------------------|
B--------------------------------------|
G-14---13---16--/--18-----14---13------|
D-----------------------------------14-|
A--------------------------------------|
E--------------------------------------|

   E            G          A
e-12-----------10----\----14-|
B-12-----------12----\----16-|
G-13-----------12----\----16-|
D-14-----------12----\----16-|
A-14-----------10----\----14-|
E-12-------------------------|
Добавлено: 06.12.2013
Другие материалы по этой песне:
  • Аккорды и текст

Страница создана 25.08.2013
http://primanota.ru/dirty-pretty-things/the-north-chords.htm
Привет, Гость.
Предлагаем пройти революционный курс по гитаре.
Подарок от PrimaNota.Ru, забирай!