PrimaNota.ru - самый крупный в мире бесплатный архив песенных текстов, аккордов, табулатур и нот


Dirty Pretty Things - Puffin On A Coffin Nail - таба, видео

Регистрация Запомнить меня
Войти через:  Facebook Google Twitter Vk Yandex Mail.ru

Dirty Pretty Things - Puffin On A Coffin Nail - таба, видео

Печатать
Просмотров: 88
Puffin' On A Coffin Nail
         Barat
    Deadwood single
          #2

Tabbed by Craig

I tabbed this on an acoustic guitar so it may have faults for that
reason. Partial lyrics are on Carl's guitar and full lyrics are at the end.

Enjoy!

Guitar 1: Carl Barat (Carl) - Light Distortion - Gibson Melody Maker
Guitar 2: Anthony Rossomando (Stan) - Heavy Distortion - Gibson Es 355

* "Carl and Stan start playing together at this point"

Intro:

Stan:

e--------5-------------------------5---------x--x--x-|
B--------7-------------------------7---------x--x--x-|
G--------6-------------------------6---------x--x--x-|
D--------5-----------------------5-5---------x--x--x-|
A-----7-----------------------7----7---------x--x--x-|
E-/5--5-----------5--------/5----------------x--x--x-|
*
e--------5---5--------------5---5------------5-5---5-|
B--------7---5----5---5-----7---5----5---5---5-7h5-5-|
G--------6---6----7---0-----6---6----7---0---0-0---0-|
D-----7--5---5----6---6-----5---5----6---6---5-5---5-|
A-----5------7----7---7-----7---7----7---7---7-7---7-|
E-/5---------5--------------5---5------------5-5---5-|

e--------5---5--------------5---5------------5-5---5-|
B--------7---5----5---5-----7---5----5---5---5-7h5-5-|
G--------6---6----7---0-----6---6----7---0---0-0---0-|
D-----7--5---5----6---6-----5---5----6---6---5-5---5-|
A-----5------7----7---7-----7---7----7---7---7-7---7-|
E-/5---------5--------------5---5------------5-5---5-|

Carl:
*
e-5-5-5-5-5-5-5-5-5-5-5-5-5-5-5-5-|
B-5-5-5-5-5-5-5-5-5-5-5-5-5-5-5-5-|
G-6-6-6-6-6-6-6-6-6-6-6-6-6-6-6-6-|
D-7-7-7-7-7-7-7-7-7-7-7-7-7-7-7-7-|
A-7-7-7-7-7-7-7-7-7-7-7-7-7-7-7-7-|
E-5-5-5-5-5-5-5-5-5-5-5-5-5-5-5-5-|

e-5-5-5-5-5-5-5-5-5-5-5-5-5-5-5-5-|
B-5-5-5-5-5-5-5-5-5-5-5-5-5-5-5-5-|
G-6-6-6-6-6-6-6-6-6-6-6-6-6-6-6-6-|
D-7-7-7-7-7-7-7-7-7-7-7-7-7-7-7-7-|
A-7-7-7-7-7-7-7-7-7-7-7-7-7-7-7-7-|
E-5-5-5-5-5-5-5-5-5-5-5-5-5-5-5-5-|

e-5-5-5-5-5-5-5-5-5-5-5-5-5-5-5-5-|
B-5-5-5-5-5-5-5-5-5-5-5-5-5-5-5-5-|
G-6-6-6-6-6-6-6-6-6-6-6-6-6-6-6-6-|
D-7-7-7-7-7-7-7-7-7-7-7-7-7-7-7-7-|
A-7-7-7-7-7-7-7-7-7-7-7-7-7-7-7-7-|
E-5-5-5-5-5-5-5-5-5-5-5-5-5-5-5-5-|

e-5-5-5-5-5-5-5-5-5-5-5-5-5-5-5-5-|
B-5-5-5-5-5-5-5-5-5-5-5-5-5-5-5-5-|
G-6-6-6-6-6-6-6-6-6-6-6-6-6-6-6-6-|
D-7-7-7-7-7-7-7-7-7-7-7-7-7-7-7-7-|
A-7-7-7-7-7-7-7-7-7-7-7-7-7-7-7-7-|
E-5-5-5-5-5-5-5-5-5-5-5-5-5-5-5-5-|

Verse 1:

Stan:
*
e-5--5-----5--5-----5--5-----5---------------|
B-7--5-----7--5-----7--5-----7--5-5-7h5-5----|
G-6--6-----6--6-----6--6-----6--0-0-0---0----|
D-5--5-----5--5-----5--5-----5--6-6-6---6----|
A-7--7-----7--7-----7--7-----7--7-7-7---7----|
E-5--5-----5--5-----5--5-----5---------------|

e-5--5-----5--5-----5--5-----5---------------|
B-7--5-----7--5-----7--5-----7--5-5-7h5-5----|
G-6--6-----6--6-----6--6-----6--0-0-0---0----|
D-5--5-----5--5-----5--5-----5--6-6-6---6----|
A-7--7-----7--7-----7--7-----7--7-7-7---7----|
E-5--5-----5--5-----5--5-----5---------------|

e-3-3-3-3-3-3-3-3----2-2-2-----2---2-2-2-|
B-5-5-5-5-5-5-5-5----4-4-4-----4---4-4-4-|
G-5-5-5-5-5-5-5-5----4-4-4-----4---4-4-4-|
D-5-5-5-5-5-5-5-5----4-4-4-----4---4-4-4-|
A-3-3-3-3-3-3-3-3----2-2-2-----2---2-2-2-|
E----------------------------------------|

Carl:
*Theres a heart...And I know
e-5-5-5-5-5-5-5-5-5-5-5-5-5-5-5-5-|
B-5-5-5-5-5-5-5-5-5-5-5-5-5-5-5-5-|
G-6-6-6-6-6-6-6-6-6-6-6-6-6-6-6-6-|
D-7-7-7-7-7-7-7-7-7-7-7-7-7-7-7-7-|
A-7-7-7-7-7-7-7-7-7-7-7-7-7-7-7-7-|
E-5-5-5-5-5-5-5-5-5-5-5-5-5-5-5-5-|
Theres a heart...
e-5-5-5-5-5-5-5-5-5-5-5-5-5-5-5-5-|
B-5-5-5-5-5-5-5-5-5-5-5-5-5-5-5-5-|
G-6-6-6-6-6-6-6-6-6-6-6-6-6-6-6-6-|
D-7-7-7-7-7-7-7-7-7-7-7-7-7-7-7-7-|
A-7-7-7-7-7-7-7-7-7-7-7-7-7-7-7-7-|
E-5-5-5-5-5-5-5-5-5-5-5-5-5-5-5-5-|
Well everytime... Heart gets...
e-5-5-5-5-5-5-5-5-5-5-5-5-5-5-5-5-|
B-5-5-5-5-5-5-5-5-5-5-5-5-5-5-5-5-|
G-6-6-6-6-6-6-6-6-6-6-6-6-6-6-6-6-|
D-7-7-7-7-7-7-7-7-7-7-7-7-7-7-7-7-|
A-7-7-7-7-7-7-7-7-7-7-7-7-7-7-7-7-|
E-5-5-5-5-5-5-5-5-5-5-5-5-5-5-5-5-|
  I turn to my...
e-5-5-5-5-5-5-5-5-5-5-5-5-5-5-5-5-|
B-5-5-5-5-5-5-5-5-5-5-5-5-5-5-5-5-|
G-6-6-6-6-6-6-6-6-6-6-6-6-6-6-6-6-|
D-7-7-7-7-7-7-7-7-7-7-7-7-7-7-7-7-|
A-7-7-7-7-7-7-7-7-7-7-7-7-7-7-7-7-|
E-5-5-5-5-5-5-5-5-5-5-5-5-5-5-5-5-|
  Said oh you....    Broken crumbling battlements
e-3-3-3-3-3-3-3-3----2-2-2-----2---2-2-2-|
B-5-5-5-5-5-5-5-5----4-4-4-----4---4-4-4-|
G-5-5-5-5-5-5-5-5----4-4-4-----4---4-4-4-|
D-5-5-5-5-5-5-5-5----4-4-4-----4---4-4-4-|
A-3-3-3-3-3-3-3-3----2-2-2-----2---2-2-2-|
E----------------------------------------|

Chorus:

Stan:
*
e----------5-5-5-5-5------------5-5-5-5-5--|
B----------5-5-5-5-5------------5-5-5-5-5--|
G----------6-6-6-6-6------------6-6-6-6-6--|
D-2--------7-7-7-7-7---2--------7-7-7-7-7--|
A-2--------7-7-7-7-7---2--------7-7-7-7-7--|
E-0-2-3-0--5-5-5-5-5---0-2-3-0--5-5-5-5-5--|

e----------5-5-5-5-5---7-7-7-7-7--7--7--7-|
B----------5-5-5-5-5---7-7-7-7-7-10-10-10-|
G----------6-6-6-6-6---8-8-8-8-8--8--8--8-|
D-2--------7-7-7-7-7---9-9-9-9-9--7--7--7-|
A-2--------7-7-7-7-7---9-9-9-9-9--9--9--9-|
E-0-2-3-0--5-5-5-5-5---7-7-7-7-7--7--7--7-|

e----------5-5-5-5-5------------5-5-5-5-5--|
B----------5-5-5-5-5------------5-5-5-5-5--|
G----------6-6-6-6-6------------6-6-6-6-6--|
D-2--------7-7-7-7-7---2--------7-7-7-7-7--|
A-2--------7-7-7-7-7---2--------7-7-7-7-7--|
E-0-2-3-0--5-5-5-5-5---0-2-3-0--5-5-5-5-5--|

e----------5-5-5-5-5---7-7-7-7-7--7--7--7-|
B----------5-5-5-5-5---7-7-7-7-7-10-10-10-|
G----------6-6-6-6-6---8-8-8-8-8--8--8--8-|
D-2--------7-7-7-7-7---9-9-9-9-9--7--7--7-|
A-2--------7-7-7-7-7---9-9-9-9-9--9--9--9-|
E-0-2-3-0--5-5-5-5-5---7-7-7-7-7--7--7--7-|

Carl:
* Puffin' on a...     With a wry
e----------5-5-5-5-5------------5-5-5-5-5--|
B----------5-5-5-5-5------------5-5-5-5-5--|
G----------6-6-6-6-6------------6-6-6-6-6--|
D-2--------7-7-7-7-7---2--------7-7-7-7-7--|
A-2--------7-7-7-7-7---2--------7-7-7-7-7--|
E-0-2-3-0--5-5-5-5-5---0-2-3-0--5-5-5-5-5--|
  And she hides...     From the sun...
e----------5-5-5-5-5---7-7-7-7-7--7--7--7-|
B----------5-5-5-5-5---7-7-7-7-7-10-10-10-|
G----------6-6-6-6-6---8-8-8-8-8--8--8--8-|
D-2--------7-7-7-7-7---9-9-9-9-9--7--7--7-|
A-2--------7-7-7-7-7---9-9-9-9-9--9--9--9-|
E-0-2-3-0--5-5-5-5-5---7-7-7-7-7--7--7--7-|
  Puffin' on a...      with a friend of...
e----------5-5-5-5-5------------5-5-5-5-5--|
B----------5-5-5-5-5------------5-5-5-5-5--|
G----------6-6-6-6-6------------6-6-6-6-6--|
D-2--------7-7-7-7-7---2--------7-7-7-7-7--|
A-2--------7-7-7-7-7---2--------7-7-7-7-7--|
E-0-2-3-0--5-5-5-5-5---0-2-3-0--5-5-5-5-5--|
  And a girl...                          slut
e----------5-5-5-5-5---7-7-7-7-7--7--7--7-|
B----------5-5-5-5-5---7-7-7-7-7-10-10-10-|
G----------6-6-6-6-6---8-8-8-8-8--8--8--8-|
D-2--------7-7-7-7-7---9-9-9-9-9--7--7--7-|
A-2--------7-7-7-7-7---9-9-9-9-9--9--9--9-|
E-0-2-3-0--5-5-5-5-5---7-7-7-7-7--7--7--7-|

Post-Chorus:

Stan:
                            *
e--------5---5--------------5---5------------5-5---5-|
B--------7---5----5---5-----7---5----5---5---5-7h5-5-|
G--------6---6----7---0-----6---6----7---0---0-0---0-|
D-----7--5---5----6---6-----5---5----6---6---5-5---5-|
A-----5------7----7---7-----7---7----7---7---7-7---7-|
E-/5---------5--------------5---5------------5-5---5-|

Carl:
*
e-5-5-5-5-5-5-5-5-5-5-5-5-5-5-5-5-|
B-5-5-5-5-5-5-5-5-5-5-5-5-5-5-5-5-|
G-6-6-6-6-6-6-6-6-6-6-6-6-6-6-6-6-|
D-7-7-7-7-7-7-7-7-7-7-7-7-7-7-7-7-|
A-7-7-7-7-7-7-7-7-7-7-7-7-7-7-7-7-|
E-5-5-5-5-5-5-5-5-5-5-5-5-5-5-5-5-|

Verse 2:

Stan:
*
e-5--5-----5--5-----5--5-----5---------------|
B-7--5-----7--5-----7--5-----7--5-5-7h5-5----|
G-6--6-----6--6-----6--6-----6--0-0-0---0----|
D-5--5-----5--5-----5--5-----5--6-6-6---6----|
A-7--7-----7--7-----7--7-----7--7-7-7---7----|
E-5--5-----5--5-----5--5-----5---------------|

e-5--5-----5--5-----5--5-----5---------------|
B-7--5-----7--5-----7--5-----7--5-5-7h5-5----|
G-6--6-----6--6-----6--6-----6--0-0-0---0----|
D-5--5-----5--5-----5--5-----5--6-6-6---6----|
A-7--7-----7--7-----7--7-----7--7-7-7---7----|
E-5--5-----5--5-----5--5-----5---------------|

e-3-3-3-3-3-3-3-3----2-2-2-----2---2-2-2-|
B-5-5-5-5-5-5-5-5----4-4-4-----4---4-4-4-|
G-5-5-5-5-5-5-5-5----4-4-4-----4---4-4-4-|
D-5-5-5-5-5-5-5-5----4-4-4-----4---4-4-4-|
A-3-3-3-3-3-3-3-3----2-2-2-----2---2-2-2-|
E----------------------------------------|

Carl:
* Now give...     Though my...
e-5-5-5-5-5-5-5-5-5-5-5-5-5-5-5-5-|
B-5-5-5-5-5-5-5-5-5-5-5-5-5-5-5-5-|
G-6-6-6-6-6-6-6-6-6-6-6-6-6-6-6-6-|
D-7-7-7-7-7-7-7-7-7-7-7-7-7-7-7-7-|
A-7-7-7-7-7-7-7-7-7-7-7-7-7-7-7-7-|
E-5-5-5-5-5-5-5-5-5-5-5-5-5-5-5-5-|
 Cause i think...
e-5-5-5-5-5-5-5-5-5-5-5-5-5-5-5-5-|
B-5-5-5-5-5-5-5-5-5-5-5-5-5-5-5-5-|
G-6-6-6-6-6-6-6-6-6-6-6-6-6-6-6-6-|
D-7-7-7-7-7-7-7-7-7-7-7-7-7-7-7-7-|
A-7-7-7-7-7-7-7-7-7-7-7-7-7-7-7-7-|
E-5-5-5-5-5-5-5-5-5-5-5-5-5-5-5-5-|
  Just give...    And if...
e-5-5-5-5-5-5-5-5-5-5-5-5-5-5-5-5-|
B-5-5-5-5-5-5-5-5-5-5-5-5-5-5-5-5-|
G-6-6-6-6-6-6-6-6-6-6-6-6-6-6-6-6-|
D-7-7-7-7-7-7-7-7-7-7-7-7-7-7-7-7-|
A-7-7-7-7-7-7-7-7-7-7-7-7-7-7-7-7-|
E-5-5-5-5-5-5-5-5-5-5-5-5-5-5-5-5-|
  And you...
e-5-5-5-5-5-5-5-5-5-5-5-5-5-5-5-5-|
B-5-5-5-5-5-5-5-5-5-5-5-5-5-5-5-5-|
G-6-6-6-6-6-6-6-6-6-6-6-6-6-6-6-6-|
D-7-7-7-7-7-7-7-7-7-7-7-7-7-7-7-7-|
A-7-7-7-7-7-7-7-7-7-7-7-7-7-7-7-7-|
E-5-5-5-5-5-5-5-5-5-5-5-5-5-5-5-5-|
  Come without...    Break upon the...
e-3-3-3-3-3-3-3-3----2-2-2-----2---2-2-2-|
B-5-5-5-5-5-5-5-5----4-4-4-----4---4-4-4-|
G-5-5-5-5-5-5-5-5----4-4-4-----4---4-4-4-|
D-5-5-5-5-5-5-5-5----4-4-4-----4---4-4-4-|
A-3-3-3-3-3-3-3-3----2-2-2-----2---2-2-2-|
E----------------------------------------|

Chorus:

Stan:
*
e----------5-5-5-5-5------------5-5-5-5-5--|
B----------5-5-5-5-5------------5-5-5-5-5--|
G----------6-6-6-6-6------------6-6-6-6-6--|
D-2--------7-7-7-7-7---2--------7-7-7-7-7--|
A-2--------7-7-7-7-7---2--------7-7-7-7-7--|
E-0-2-3-0--5-5-5-5-5---0-2-3-0--5-5-5-5-5--|

e----------5-5-5-5-5---7-7-7-7-7--7--7--7-|
B----------5-5-5-5-5---7-7-7-7-7-10-10-10-|
G----------6-6-6-6-6---8-8-8-8-8--8--8--8-|
D-2--------7-7-7-7-7---9-9-9-9-9--7--7--7-|
A-2--------7-7-7-7-7---9-9-9-9-9--9--9--9-|
E-0-2-3-0--5-5-5-5-5---7-7-7-7-7--7--7--7-|

e----------5-5-5-5-5------------5-5-5-5-5--|
B----------5-5-5-5-5------------5-5-5-5-5--|
G----------6-6-6-6-6------------6-6-6-6-6--|
D-2--------7-7-7-7-7---2--------7-7-7-7-7--|
A-2--------7-7-7-7-7---2--------7-7-7-7-7--|
E-0-2-3-0--5-5-5-5-5---0-2-3-0--5-5-5-5-5--|

e----------5-5-5-5-5---7-7-7-7-7---7-----8-----9----10-|
B----------5-5-5-5-5---7-7-7-7-7---7-----8-----9----10-|
G----------6-6-6-6-6---8-8-8-8-8---8-----9----10----11-|
D-2--------7-7-7-7-7---9-9-9-9-9---9----10----11----12-|
A-2--------7-7-7-7-7---9-9-9-9-9-9---10----11----12----|
E-0-2-3-0--5-5-5-5-5---7-7-7-7-7-7----8-----9----10----|

Carl:
* Puffin' on a...      With a friend...
e----------5-5-5-5-5------------5-5-5-5-5--|
B----------5-5-5-5-5------------5-5-5-5-5--|
G----------6-6-6-6-6------------6-6-6-6-6--|
D-2--------7-7-7-7-7---2--------7-7-7-7-7--|
A-2--------7-7-7-7-7---2--------7-7-7-7-7--|
E-0-2-3-0--5-5-5-5-5---0-2-3-0--5-5-5-5-5--|
  But this girl...     Rut...
e----------5-5-5-5-5---7-7-7-7-7--7--7--7-|
B----------5-5-5-5-5---7-7-7-7-7-10-10-10-|
G----------6-6-6-6-6---8-8-8-8-8--8--8--8-|
D-2--------7-7-7-7-7---9-9-9-9-9--7--7--7-|
A-2--------7-7-7-7-7---9-9-9-9-9--9--9--9-|
E-0-2-3-0--5-5-5-5-5---7-7-7-7-7--7--7--7-|
  Puffin' on a...      Yes she gives...
e----------5-5-5-5-5------------5-5-5-5-5--|
B----------5-5-5-5-5------------5-5-5-5-5--|
G----------6-6-6-6-6------------6-6-6-6-6--|
D-2--------7-7-7-7-7---2--------7-7-7-7-7--|
A-2--------7-7-7-7-7---2--------7-7-7-7-7--|
E-0-2-3-0--5-5-5-5-5---0-2-3-0--5-5-5-5-5--|
  And she works...     scream...
e----------5-5-5-5-5---7-7-7-7-7-|
B----------5-5-5-5-5---7-7-7-7-7-|
G----------6-6-6-6-6---8-8-8-8-8-|
D-2--------7-7-7-7-7---9-9-9-9-9-|
A-2--------7-7-7-7-7---9-9-9-9-9-|
E-0-2-3-0--5-5-5-5-5---7-7-7-7-7-|

Break:

Carl:
  So I'm sad...
e-12---10---9--10-------------------------------------|
B-----------------10h11--12--13----15--13--12--10--10-|
G-----------------------------------------------------|
D-----------------------------------------------------|
A-----------------------------------------------------|
E-----------------------------------------------------|
I knew...                 hero's just returned...
e---------6--6-----------12-12-11-11-10-10-9-9-8-8-7-7-|
B------------------------------------------------------|
G-7---7h6-------6--7--8--------------------------------|
D------------------------------------------------------|
A------------------------------------------------------|
E------------------------------------------------------|

e-6-6-5-5-4-4-3-3-2-2-1-1-0-|
B---------------------------|
G---------------------------|
D---------------------------|
A---------------------------|
E---------------------------|

Chorus:

Stan:
*
e----------5-5-5-5-5------------5-5-5-5-5--|
B----------5-5-5-5-5------------5-5-5-5-5--|
G----------6-6-6-6-6------------6-6-6-6-6--|
D-2--------7-7-7-7-7---2--------7-7-7-7-7--|
A-2--------7-7-7-7-7---2--------7-7-7-7-7--|
E-0-2-3-0--5-5-5-5-5---0-2-3-0--5-5-5-5-5--|

e----------5-5-5-5-5---7-7-7-7-7--7--7--7-|
B----------5-5-5-5-5---7-7-7-7-7-10-10-10-|
G----------6-6-6-6-6---8-8-8-8-8--8--8--8-|
D-2--------7-7-7-7-7---9-9-9-9-9--7--7--7-|
A-2--------7-7-7-7-7---9-9-9-9-9--9--9--9-|
E-0-2-3-0--5-5-5-5-5---7-7-7-7-7--7--7--7-|

e----------5-5-5-5-5------------5-5-5-5-5--|
B----------5-5-5-5-5------------5-5-5-5-5--|
G----------6-6-6-6-6------------6-6-6-6-6--|
D-2--------7-7-7-7-7---2--------7-7-7-7-7--|
A-2--------7-7-7-7-7---2--------7-7-7-7-7--|
E-0-2-3-0--5-5-5-5-5---0-2-3-0--5-5-5-5-5--|

e----------5-5-5-5-5---7-7-7-7-7--7--7--7-|
B----------5-5-5-5-5---7-7-7-7-7-10-10-10-|
G----------6-6-6-6-6---8-8-8-8-8--8--8--8-|
D-2--------7-7-7-7-7---9-9-9-9-9--7--7--7-|
A-2--------7-7-7-7-7---9-9-9-9-9--9--9--9-|
E-0-2-3-0--5-5-5-5-5---7-7-7-7-7--7--7--7-|

Carl:
*  Puffin on a...      talking like...
e----------5-5-5-5-5------------5-5-5-5-5--|
B----------5-5-5-5-5------------5-5-5-5-5--|
G----------6-6-6-6-6------------6-6-6-6-6--|
D-2--------7-7-7-7-7---2--------7-7-7-7-7--|
A-2--------7-7-7-7-7---2--------7-7-7-7-7--|
E-0-2-3-0--5-5-5-5-5---0-2-3-0--5-5-5-5-5--|
  lovers on...         speed...
e----------5-5-5-5-5---7-7-7-7-7--7--7--7-|
B----------5-5-5-5-5---7-7-7-7-7-10-10-10-|
G----------6-6-6-6-6---8-8-8-8-8--8--8--8-|
D-2--------7-7-7-7-7---9-9-9-9-9--7--7--7-|
A-2--------7-7-7-7-7---9-9-9-9-9--9--9--9-|
E-0-2-3-0--5-5-5-5-5---7-7-7-7-7--7--7--7-|
  Puffin' on a...     gave her...
e----------5-5-5-5-5------------5-5-5-5-5--|
B----------5-5-5-5-5------------5-5-5-5-5--|
G----------6-6-6-6-6------------6-6-6-6-6--|
D-2--------7-7-7-7-7---2--------7-7-7-7-7--|
A-2--------7-7-7-7-7---2--------7-7-7-7-7--|
E-0-2-3-0--5-5-5-5-5---0-2-3-0--5-5-5-5-5--|
  told me a...         you...
e----------5-5-5-5-5---7-7-7-7-7--7--7--7-|
B----------5-5-5-5-5---7-7-7-7-7-10-10-10-|
G----------6-6-6-6-6---8-8-8-8-8--8--8--8-|
D-2--------7-7-7-7-7---9-9-9-9-9--7--7--7-|
A-2--------7-7-7-7-7---9-9-9-9-9--9--9--9-|
E-0-2-3-0--5-5-5-5-5---7-7-7-7-7--7--7--7-|

Outro:

Stan:
*
e-6-6-6-6-6-6-6-6--5-5-5-5-5-5-5-5-|
B-8-8-8-8-8-8-8-8--5-5-5-5-5-5-5-5-|
G-8-8-8-8-8-8-8-8--6-6-6-6-6-6-6-6-|
D-8-8-8-8-8-8-8-8--7-7-7-7-7-7-7-7-|
A-6-6-6-6-6-6-6-6--7-7-7-7-7-7-7-7-|
E------------------5-5-5-5-5-5-5-5-|

e-6-6-6-6-6-6-6-6--5-5-5-5-5-5-5-5-|
B-8-8-8-8-8-8-8-8--5-5-5-5-5-5-5-5-|
G-8-8-8-8-8-8-8-8--6-6-6-6-6-6-6-6-|
D-8-8-8-8-8-8-8-8--7-7-7-7-7-7-7-7-|
A-6-6-6-6-6-6-6-6--7-7-7-7-7-7-7-7-|
E------------------5-5-5-5-5-5-5-5-|

e-6-6-6-6-6-6-6-6--5-5-5-5-5-5-5-5-|
B-8-8-8-8-8-8-8-8--5-5-5-5-5-5-5-5-|
G-8-8-8-8-8-8-8-8--6-6-6-6-6-6-6-6-|
D-8-8-8-8-8-8-8-8--7-7-7-7-7-7-7-7-|
A-6-6-6-6-6-6-6-6--7-7-7-7-7-7-7-7-|
E------------------5-5-5-5-5-5-5-5-|

e-6-6-6-6-6-6-6-6--5-5-5-5-5-5-5-5-|
B-8-8-8-8-8-8-8-8--5-5-5-5-5-5-5-5-|
G-8-8-8-8-8-8-8-8--6-6-6-6-6-6-6-6-|
D-8-8-8-8-8-8-8-8--7-7-7-7-7-7-7-7-|
A-6-6-6-6-6-6-6-6--7-7-7-7-7-7-7-7-|
E------------------5-5-5-5-5-5-5-5-|

e-7-
B-9-
G-9-
D-9-
A-7-
E---

Carl:
* So this...       the road...
e-6-6-6-6-6-6-6-6--5-5-5-5-5-5-5-5-|
B-8-8-8-8-8-8-8-8--5-5-5-5-5-5-5-5-|
G-8-8-8-8-8-8-8-8--6-6-6-6-6-6-6-6-|
D-8-8-8-8-8-8-8-8--7-7-7-7-7-7-7-7-|
A-6-6-6-6-6-6-6-6--7-7-7-7-7-7-7-7-|
E------------------5-5-5-5-5-5-5-5-|
  this is the...    chose...
e-6-6-6-6-6-6-6-6--5-5-5-5-5-5-5-5-|
B-8-8-8-8-8-8-8-8--5-5-5-5-5-5-5-5-|
G-8-8-8-8-8-8-8-8--6-6-6-6-6-6-6-6-|
D-8-8-8-8-8-8-8-8--7-7-7-7-7-7-7-7-|
A-6-6-6-6-6-6-6-6--7-7-7-7-7-7-7-7-|
E------------------5-5-5-5-5-5-5-5-|
  well it's...     my nose...
e-6-6-6-6-6-6-6-6--5-5-5-5-5-5-5-5-|
B-8-8-8-8-8-8-8-8--5-5-5-5-5-5-5-5-|
G-8-8-8-8-8-8-8-8--6-6-6-6-6-6-6-6-|
D-8-8-8-8-8-8-8-8--7-7-7-7-7-7-7-7-|
A-6-6-6-6-6-6-6-6--7-7-7-7-7-7-7-7-|
E------------------5-5-5-5-5-5-5-5-|
  lover with...    the rose...
e-6-6-6-6-6-6-6-6--5-5-5-5-5-5-5-5-|
B-8-8-8-8-8-8-8-8--5-5-5-5-5-5-5-5-|
G-8-8-8-8-8-8-8-8--6-6-6-6-6-6-6-6-|
D-8-8-8-8-8-8-8-8--7-7-7-7-7-7-7-7-|
A-6-6-6-6-6-6-6-6--7-7-7-7-7-7-7-7-|
E------------------5-5-5-5-5-5-5-5-|
  end of the road
e-7-
B-9-
G-9-
D-9-
A-7-
E---

There's a heart in a girl in a ship on a sea,
And I know that girl is sick of me,
There's a heart in a girl and a maniac beats like a drum.
Well, Every time I think of the girl,
My heart gets heavy and I'm stuck in a whirlwind,
I turn to my shadow and my heart starts to beat like a drum.
Said oh you might upon a steeple set,
Broken crumbling battlements.

Puffin' on a coffin nail,
With a wry little smile that she keeps up her shell,
And she hides that pile from the halves that hide from the sun.

Puffin' on a coffin nail,
With a friend of a friend and an arse like a whale,
And a girl with a friend who was stuck in a disco rut,
Slut!

Now give me the strength just to give fate a try,
Though my hands get sweaty and my mouth goes dry,
Cos I think every time that my plans go awry, you see.
Just give fate a passage but she was just a bore,
And if there's a quiz I am a bit cocksure,
And you can't find your mind and my heart,
On a coffin and a dream.
Come with outcry and pounded breast,
And break upon the slippery wreck.

Puffin' on a coffin nail,
With a friend of a friend with an arse like a whale,
But this girl is a friend of a friend you see,
Stuck in a disco rut!

Puffin' on a coffin nail,
Yes she gives you a chance and you give me the mail,
And she works for the mail but she's out on bail well you scream.

So I'm sad to say that my heart,
Shattered this way.
I knew she'd be no better,
Yes I knew if I'd have met her,
That I'd soon enough forget her,
Now face your hero's just returned,
And I've had a word with him. some gibberish

Puffin' on a coffin nail,
Yes she's talking like Elvis 'cause she's just done a rail,
But her lover's on bail with a dear rubber snail on speed.

Puffin' on a coffin nail,
Yes I gave her something just to tell me a tale,
And she told me a tale but she told me a tale about you.

So this is the end of the road,
This is the path that you chose.
Well it's no skin off my nose,
W lover with a brick has had the rose.
End of the road.
Добавлено: 12.10.2013
Другие материалы по этой песне:
  • Аккорды и текст

Страница создана 12.10.2013
http://primanota.ru/dirty-pretty-things/puffin-on-a-coffin-nail-chords.htm
Привет, Гость.
Предлагаем пройти революционный курс по гитаре.
Подарок от PrimaNota.Ru, забирай!