PrimaNota.ru - самый крупный в мире бесплатный архив песенных текстов, аккордов, табулатур и нот


Dirty Pretty Things - Plastik Hearts - таба, видео

Регистрация Запомнить меня
Войти через:  Facebook Google Twitter Vk Yandex Mail.ru

Dirty Pretty Things - Plastik Hearts - таба, видео

Печатать
Просмотров: 75
     Dirty Pretty Things
       Plastik Hearts
Barat/Rossomando/Hammond/Powell

Guitar 1: Carl Barat (Carl) Lead Electric
Guitar 2: Anthony Rossomando (Stan) Lead Acoustic
Guitar 3: Anthony Over-Dub (AOD) Rythym Electric
Guitar 4: Carl Over-Dub (COD) Very Quiet Rythym Acoustic

Intro:

Carl:
*
e---------------------------------------------------|
B-3--5--8-\-3--3--5--8-\-3--5--8--8--\-3--3--5--8-\-|
G---------------------------------------------------|
D---------------------------------------------------|
A---------------------------------------------------|
E---------------------------------------------------|

e-8--7--5-----8-8--7--5-----8-8--7--5-----5--5--5--5--|
B----------8-------------8-------------8-----8b-8b-8b-|
G-----------------------------------------------------|
D-----------------------------------------------------|
A-----------------------------------------------------|
E-----------------------------------------------------|

Stan:
*
e-----3---3-3--------3---3-3--------3---3-3-|
B-----3---3-3--------3---3-3--------3---3-3-|
G-----4---4-4--------4---4-4--------4---4-4-|
D-----5---5-5--------5---5-5--------5---5-5-|
A-----5---5-5--------5---5-5--------5---5-5-|
E-3--------------3--------------3-----------|
  T              T              T

e-----5---5-5--------5---5-5--------5---5-5-------------|
B-----5---5-5--------5---5-5--------5---5-5-------------|
G-----5---5-5--------5---5-5--------5---5-5-------------|
D-----7---7-7--------7---7-7--------7---7-7-------------|
A-----7---7-7--------7---7-7--------7---7-7-------------|
E-5--------------5--------------5-----------5-5-7-7-5-5-|
  T              T              T


AOD:
*
e------3--3------------3--3------------3--3-|
B------3--3------------3--3------------3--3-|
G------4--4------------4--4------------4--4-|
D-------------------------------------------|
A-------------------------------------------|
E-------------------------------------------|

e------5--5------------5--5------------5--5-|
B------5--5------------5--5------------5--5-|
G------5--5------------5--5------------5--5-|
D-------------------------------------------|
A-------------------------------------------|
E-------------------------------------------|

Verse 1:

Stan:
* You sauntered...     hows tricks...    drugs with...
e-----3-3-3-3-3--------3-3-3-3-3--------3-3-3-3-3---------|
B-----3-3-3-3-3--------3-3-3-3-3--------3-3-3-3-3---------|
G-----4-4-4-4-4--------4-4-4-4-4--------4-4-4-4-4---------|
D-----5-5-5-5-5--------5-5-5-5-5--------5-5-5-5-5---------|
A-----5-5-5-5-5--------5-5-5-5-5--------5-5-5-5-5---------|
E-3----------------3----------------3-------------3-5-3-3-|
  T                T                T
      talked...       the plot...       everything...
e-----5-5-5-5-5--------5-5-5-5-5--------5-5-5-5-5---------|
B-----5-5-5-5-5--------5-5-5-5-5--------5-5-5-5-5---------|
G-----5-5-5-5-5--------5-5-5-5-5--------5-5-5-5-5---------|
D-----7-7-7-7-7--------7-7-7-7-7--------7-7-7-7-7---------|
A-----7-7-7-7-7--------7-7-7-7-7--------7-7-7-7-7---------|
E-5----------------5----------------5-------------7-7-5-5-|
  T                T                T
       distinct...       collide...     each others...
e-----3-3-3-3-3--------3-3-3-3-3--------3-3-3-3-3---------|
B-----3-3-3-3-3--------3-3-3-3-3--------3-3-3-3-3---------|
G-----4-4-4-4-4--------4-4-4-4-4--------4-4-4-4-4---------|
D-----5-5-5-5-5--------5-5-5-5-5--------5-5-5-5-5---------|
A-----5-5-5-5-5--------5-5-5-5-5--------5-5-5-5-5---------|
E-3----------------3----------------3-------------3-5-3-3-|
  T                T                T
      intoxicated...    cold cold...      well...
e-----5-5-5-5-5--------5-5-5-5-5--------5-5-5-5-5---------|
B-----5-5-5-5-5--------5-5-5-5-5--------5-5-5-5-5---------|
G-----5-5-5-5-5--------5-5-5-5-5--------5-5-5-5-5---------|
D-----7-7-7-7-7--------7-7-7-7-7--------7-7-7-7-7---------|
A-----7-7-7-7-7--------7-7-7-7-7--------7-7-7-7-7---------|
E-5----------------5----------------5-------------7-7-5-5-|
  T                T                T


AOD:
*
e------3--3------------3--3------------3--3-|
B------3--3------------3--3------------3--3-|
G------4--4------------4--4------------4--4-|
D-------------------------------------------|
A-------------------------------------------|
E-------------------------------------------|

e------5--5------------5--5------------5--5--5-5-5-5-|
B------5--5------------5--5------------5--5--5-5-5-5-|
G------5--5------------5--5------------5--5--5-5-5-5-|
D----------------------------------------------------|
A----------------------------------------------------|
E----------------------------------------------------|

e------3--3------------3--3------------3--3-|
B------3--3------------3--3------------3--3-|
G------4--4------------4--4------------4--4-|
D-------------------------------------------|
A-------------------------------------------|
E-------------------------------------------|

e------5--5------------5--5------------5--5-|
B------5--5------------5--5------------5--5-|
G------5--5------------5--5------------5--5-|
D-------------------------------------------|
A-------------------------------------------|
E-------------------------------------------|

Pre-Chorus:

Carl:

e----------------------------------------|
B---3----------------3-------------------|
G------4-----4----------4------4-------9-|
D---------------5-----------------5------|
A----------------------------------------|
E----------------------------------------|

Stan:
   listening...     listening...
e-2-2-2-2--3-3-3-3--2-2-2-2--3-3-3-3-|
B-3-3-3-3--3-3-3-3--3-3-3-3--3-3-3-3-|
G-4-4-4-4--4-4-4-4--4-4-4-4--4-4-4-4-|
D-4-4-4-4--5-5-5-5--4-4-4-4--5-5-5-5-|
A-2-2-2-2--5-5-5-5--2-2-2-2--5-5-5-5-|
E----------3-3-3-3-----------3-3-3-3-|
    days...       waves...     up...       hind...   you.
e---5-5-5-5-5----5-5-5-5-5----5-5-5-5-5--3-3-3-3-3--5-5-5-5-5-|
B---5-5-5-5-5----5-5-5-5-5----5-5-5-5-5--5-5-5-5-5--7-7-7-7-7-|
G---5-5-5-5-5----5-5-5-5-5----5-5-5-5-5--5-5-5-5-5--7-7-7-7-7-|
D---7-7-7-7-7----7-7-7-7-7----7-7-7-7-7--5-5-5-5-5--7-7-7-7-7-|
A---7-7-7-7-7----7-7-7-7-7----7-7-7-7-7--3-3-3-3-3--5-5-5-5-5-|
E-5------------5------------5---------------------------------|
  T            T            T

AOD:

e-2--------3--------2--------3-|
B-3--------3--------3--------3-|
G-4--------4--------4--------4-|
D-4--------5--------4--------5-|
A-2--------5--------2--------5-|
E----------3-----------------3-|

e----5-|
B----5-|
G----5-|
D----7-|
A----7-|
E-5----|
  T

Chorus:

Stan:
*   La  la  la  la  la  keep it on.
e-----3-3-3-3-3--------3-3-3-3-3--------5-5-5-5-5--------5-5-5-5-5-|
B-----3-3-3-3-3--------3-3-3-3-3--------5-5-5-5-5--------5-5-5-5-5-|
G-----4-4-4-4-4--------4-4-4-4-4--------5-5-5-5-5--------5-5-5-5-5-|
D-----5-5-5-5-5--------5-5-5-5-5--------7-7-7-7-7--------7-7-7-7-7-|
A-----5-5-5-5-5--------5-5-5-5-5--------7-7-7-7-7--------7-7-7-7-7-|
E-3----------------3----------------5----------------5-------------|
  T                T                T                T
 Melt my plastik heart and help me move on...
e-----3-3-3-3-3--------3-3-3-3-3--------5-5-5-5-5--5-5---5-5-5--5-5-|
B-----3-3-3-3-3--------3-3-3-3-3--------5-5-5-5-5--5-5---5-5-5--5-5-|
G-----4-4-4-4-4--------4-4-4-4-4--------5-5-5-5-5--5-5---5-5-5--5-5-|
D-----5-5-5-5-5--------5-5-5-5-5--------7-7-7-7-7--7-7---7-7-7--7-7-|
A-----5-5-5-5-5--------5-5-5-5-5--------7-7-7-7-7--7-7---7-7-7--7-7-|
E-3----------------3----------------5--------------5-5---5-5-5--5-5-|
  T                T                T

AOD:
*
e-----3-3-3-3-3--------3-3-3-3-3--------5-5-5-5-5--------5-5-5-5-5-|
B-----3-3-3-3-3--------3-3-3-3-3--------5-5-5-5-5--------5-5-5-5-5-|
G-----4-4-4-4-4--------4-4-4-4-4--------5-5-5-5-5--------5-5-5-5-5-|
D-----5-5-5-5-5--------5-5-5-5-5--------7-7-7-7-7--------7-7-7-7-7-|
A-----5-5-5-5-5--------5-5-5-5-5--------7-7-7-7-7--------7-7-7-7-7-|
E-3----------------3----------------5----------------5-------------|
  T                T                T                T

e-----3-3-3-3-3--------3-3-3-3-3--------5-5-5-5-5--5-5---5-5-5--5-5-|
B-----3-3-3-3-3--------3-3-3-3-3--------5-5-5-5-5--5-5---5-5-5--5-5-|
G-----4-4-4-4-4--------4-4-4-4-4--------5-5-5-5-5--5-5---5-5-5--5-5-|
D-----5-5-5-5-5--------5-5-5-5-5--------7-7-7-7-7--7-7---7-7-7--7-7-|
A-----5-5-5-5-5--------5-5-5-5-5--------7-7-7-7-7--7-7---7-7-7--7-7-|
E-3----------------3----------------5--------------5-5---5-5-5--5-5-|
  T                T                T

Post-Chorus:

Carl:
*
e---------------------------------------------12\-|
B-3--5--8-\-3--3--5--8-\-3--5--8--8--8--8---------|
G-------------------------------------------------|
D-------------------------------------------------|
A-------------------------------------------------|
E-------------------------------------------------|

Stan:
*
e-----3-3-3-3-3--------3-3-3-3-3--------3-3-3-3-3---------|
B-----3-3-3-3-3--------3-3-3-3-3--------3-3-3-3-3---------|
G-----4-4-4-4-4--------4-4-4-4-4--------4-4-4-4-4---------|
D-----5-5-5-5-5--------5-5-5-5-5--------5-5-5-5-5---------|
A-----5-5-5-5-5--------5-5-5-5-5--------5-5-5-5-5---------|
E-3----------------3----------------3-------------3-5-3-3-|
  T                T                T

Verse 2:

Carl:
C
e----7-7-7-7--5-5-|
B----7-7-7-7--5-5-|
G----8-8-8-8--5-5-|
D----9-9-9-9--7-7-|
A----9-9-9-9--7-7-|
E----7-7-7-7--5-5-|

Stan:
*     escape...           rain...       island...
e-----3-3-3-3-3--------3-3-3-3-3--------3-3-3-3-3---------|
B-----3-3-3-3-3--------3-3-3-3-3--------3-3-3-3-3---------|
G-----4-4-4-4-4--------4-4-4-4-4--------4-4-4-4-4---------|
D-----5-5-5-5-5--------5-5-5-5-5--------5-5-5-5-5---------|
A-----5-5-5-5-5--------5-5-5-5-5--------5-5-5-5-5---------|
E-3----------------3----------------3-------------3-5-3-3-|
  T                T                T

      la la...            how...        C
e-----5-5-5-5-5--------5-5-5-5-5--------5-5-5-5-5---------|
B-----5-5-5-5-5--------5-5-5-5-5--------5-5-5-5-5---------|
G-----5-5-5-5-5--------5-5-5-5-5--------5-5-5-5-5---------|
D-----7-7-7-7-7--------7-7-7-7-7--------7-7-7-7-7---------|
A-----7-7-7-7-7--------7-7-7-7-7--------7-7-7-7-7---------|
E-5----------------5----------------5-------------7-7-5-5-|
  T                T                T
       the...           rivets in...      buildings...
e-----3-3-3-3-3--------3-3-3-3-3--------3-3-3-3-3---------|
B-----3-3-3-3-3--------3-3-3-3-3--------3-3-3-3-3---------|
G-----4-4-4-4-4--------4-4-4-4-4--------4-4-4-4-4---------|
D-----5-5-5-5-5--------5-5-5-5-5--------5-5-5-5-5---------|
A-----5-5-5-5-5--------5-5-5-5-5--------5-5-5-5-5---------|
E-3----------------3----------------3-------------3-5-3-3-|
  T                T                T
      same...           our...           pull us...
e-----5-5-5-5-5--------5-5-5-5-5--------5-5-5-5-5---------|
B-----5-5-5-5-5--------5-5-5-5-5--------5-5-5-5-5---------|
G-----5-5-5-5-5--------5-5-5-5-5--------5-5-5-5-5---------|
D-----7-7-7-7-7--------7-7-7-7-7--------7-7-7-7-7---------|
A-----7-7-7-7-7--------7-7-7-7-7--------7-7-7-7-7---------|
E-5----------------5----------------5-------------7-7-5-5-|
  T                T                T

AOD:
*
e--------------------------------------3--3-|
B--------------------------------------3--3-|
G--------------------------------------4--4-|
D-------------------------------------------|
A-------------------------------------------|
E-------------------------------------------|

e------5--5------------5--5------------5--5-|
B------5--5------------5--5------------5--5-|
G------5--5------------5--5------------5--5-|
D-------------------------------------------|
A-------------------------------------------|
E-------------------------------------------|

e------3--3------------3--3------------3--3-|
B------3--3------------3--3------------3--3-|
G------4--4------------4--4------------4--4-|
D-------------------------------------------|
A-------------------------------------------|
E-------------------------------------------|

e------5--5------------5--5------------5--5-|
B------5--5------------5--5------------5--5-|
G------5--5------------5--5------------5--5-|
D-------------------------------------------|
A-------------------------------------------|
E-------------------------------------------|

Pre-Chorus:

Carl:

e----------------------------------------|
B---3----------------3-------------------|
G------4-----4----------4------4-------9-|
D---------------5-----------------5------|
A----------------------------------------|
E----------------------------------------|

Stan:
   listening...     listening...
e-2-2-2-2--3-3-3-3--2-2-2-2--3-3-3-3-|
B-3-3-3-3--3-3-3-3--3-3-3-3--3-3-3-3-|
G-4-4-4-4--4-4-4-4--4-4-4-4--4-4-4-4-|
D-4-4-4-4--5-5-5-5--4-4-4-4--5-5-5-5-|
A-2-2-2-2--5-5-5-5--2-2-2-2--5-5-5-5-|
E----------3-3-3-3-----------3-3-3-3-|
    days...       waves...     up...       hind...   you.
e---5-5-5-5-5----5-5-5-5-5----5-5-5-5-5--3-3-3-3-3--5-5-5-5-5-|
B---5-5-5-5-5----5-5-5-5-5----5-5-5-5-5--5-5-5-5-5--7-7-7-7-7-|
G---5-5-5-5-5----5-5-5-5-5----5-5-5-5-5--5-5-5-5-5--7-7-7-7-7-|
D---7-7-7-7-7----7-7-7-7-7----7-7-7-7-7--5-5-5-5-5--7-7-7-7-7-|
A---7-7-7-7-7----7-7-7-7-7----7-7-7-7-7--3-3-3-3-3--5-5-5-5-5-|
E-5------------5------------5---------------------------------|
  T            T            T

AOD:

e-2--------3--------2--------3-|
B-3--------3--------3--------3-|
G-4--------4--------4--------4-|
D-4--------5--------4--------5-|
A-2--------5--------2--------5-|
E----------3-----------------3-|

e----5-|
B----5-|
G----5-|
D----7-|
A----7-|
E-5----|
  T

Chorus:

Carl:
C
e-8-8-8--7--5-|
B-8-8-8--7--5-|
G-------------|
D-------------|
A-------------|
E-------------|

Stan:
*  la  la  la  la  la  keep it on                       C
e-----3-3-3-3-3--------3-3-3-3-3--------5-5-5-5-5--------5-5-5-5-5-|
B-----3-3-3-3-3--------3-3-3-3-3--------5-5-5-5-5--------5-5-5-5-5-|
G-----4-4-4-4-4--------4-4-4-4-4--------5-5-5-5-5--------5-5-5-5-5-|
D-----5-5-5-5-5--------5-5-5-5-5--------7-7-7-7-7--------7-7-7-7-7-|
A-----5-5-5-5-5--------5-5-5-5-5--------7-7-7-7-7--------7-7-7-7-7-|
E-3----------------3----------------5----------------5-------------|
  T                T                T                T
 Melt my plastik heart and help me move on...
e-----3-3-3-3-3--------3-3-3-3-3--------5-5-5-5-5--5-5---5-5-5--5-5-|
B-----3-3-3-3-3--------3-3-3-3-3--------5-5-5-5-5--5-5---5-5-5--5-5-|
G-----4-4-4-4-4--------4-4-4-4-4--------5-5-5-5-5--5-5---5-5-5--5-5-|
D-----5-5-5-5-5--------5-5-5-5-5--------7-7-7-7-7--7-7---7-7-7--7-7-|
A-----5-5-5-5-5--------5-5-5-5-5--------7-7-7-7-7--7-7---7-7-7--7-7-|
E-3----------------3----------------5--------------5-5---5-5-5--5-5-|
  T                T                T

AOD:
*
e-----3-3-3-3-3--------3-3-3-3-3--------5-5-5-5-5--------5-5-5-5-5-|
B-----3-3-3-3-3--------3-3-3-3-3--------5-5-5-5-5--------5-5-5-5-5-|
G-----4-4-4-4-4--------4-4-4-4-4--------5-5-5-5-5--------5-5-5-5-5-|
D-----5-5-5-5-5--------5-5-5-5-5--------7-7-7-7-7--------7-7-7-7-7-|
A-----5-5-5-5-5--------5-5-5-5-5--------7-7-7-7-7--------7-7-7-7-7-|
E-3----------------3----------------5----------------5-------------|
  T                T                T                T

e-----3-3-3-3-3--------3-3-3-3-3--------5-5-5-5-5--5-5---5-5-5--5-5-|
B-----3-3-3-3-3--------3-3-3-3-3--------5-5-5-5-5--5-5---5-5-5--5-5-|
G-----4-4-4-4-4--------4-4-4-4-4--------5-5-5-5-5--5-5---5-5-5--5-5-|
D-----5-5-5-5-5--------5-5-5-5-5--------7-7-7-7-7--7-7---7-7-7--7-7-|
A-----5-5-5-5-5--------5-5-5-5-5--------7-7-7-7-7--7-7---7-7-7--7-7-|
E-3----------------3----------------5--------------5-5---5-5-5--5-5-|
  T                T                T

Bridge:

Carl:
*
e-14-14-14-14-14-14-14-14-|
B-16-16-16-16-16-16-16-16-|
G-16-16-16-16-16-16-16-16-|
D-16-16-16-16-16-16-16-16-|
A-14-14-14-14-14-14-14-14-|
E-------------------------|

Stan:
*                         kick...   round my...    floor.
e-7-7-7-7-7-7-7-7---3-3-3-3-3-3--5-5-5-5-5-5--3-3-3-3-3-3-|
B-7-7-7-7-7-7-7-7---5-5-5-5-5-5--7-7-7-7-7-7--3-3-3-3-3-3-|
G-8-8-8-8-8-8-8-8---5-5-5-5-5-5--7-7-7-7-7-7--3-3-3-3-3-3-|
D-9-9-9-9-9-9-9-9---5-5-5-5-5-5--7-7-7-7-7-7--5-5-5-5-5-5-|
A-9-9-9-9-9-9-9-9---3-3-3-3-3-3--5-5-5-5-5-5--5-5-5-5-5-5-|
E-7-7-7-7-7-7-7-7-----------------------------3-3-3-3-3-3-|
                hit the...       want...      more.
e-2-2-2-2-2-2--3-3-3-3-3-3--5-5-5-5-5-5--3-3-3-3-3-3-|
B-3-3-3-3-3-3--5-5-5-5-5-5--7-7-7-7-7-7--3-3-3-3-3-3-|
G-4-4-4-4-4-4--5-5-5-5-5-5--7-7-7-7-7-7--3-3-3-3-3-3-|
D-4-4-4-4-4-4--5-5-5-5-5-5--7-7-7-7-7-7--5-5-5-5-5-5-|
A-2-2-2-2-2-2--3-3-3-3-3-3--5-5-5-5-5-5--5-5-5-5-5-5-|
E----------------------------------------3-3-3-3-3-3-|
                the tide the tide has...
e-2-2-2-2-2-2--5-5-5-5-5-5--5-5-5-5-5-5-|
B-3-3-3-3-3-3--5-5-5-5-5-5--5-5-5-5-5-5-|
G-4-4-4-4-4-4--6-6-6-6-6-6--6-6-6-6-6-6-|
D-4-4-4-4-4-4--7-7-7-7-7-7--7-7-7-7-7-7-|
A-2-2-2-2-2-2--7-7-7-7-7-7--7-7-7-7-7-7-|
E--------------5-5-5-5-5-5--5-5-5-5-5-5-|

AOD:
*
e-7-7-7-7-7-7-7-7---3-3-3-3-3-3--5-5-5-5-5-5--3-3-3-3-3-3-|
B-7-7-7-7-7-7-7-7---5-5-5-5-5-5--7-7-7-7-7-7--3-3-3-3-3-3-|
G-8-8-8-8-8-8-8-8---5-5-5-5-5-5--7-7-7-7-7-7--3-3-3-3-3-3-|
D-9-9-9-9-9-9-9-9---5-5-5-5-5-5--7-7-7-7-7-7--5-5-5-5-5-5-|
A-9-9-9-9-9-9-9-9---3-3-3-3-3-3--5-5-5-5-5-5--5-5-5-5-5-5-|
E-7-7-7-7-7-7-7-7-----------------------------3-3-3-3-3-3-|

e-2-2-2-2-2-2--3-3-3-3-3-3--5-5-5-5-5-5--3-3-3-3-3-3-|
B-3-3-3-3-3-3--5-5-5-5-5-5--7-7-7-7-7-7--3-3-3-3-3-3-|
G-4-4-4-4-4-4--5-5-5-5-5-5--7-7-7-7-7-7--3-3-3-3-3-3-|
D-4-4-4-4-4-4--5-5-5-5-5-5--7-7-7-7-7-7--5-5-5-5-5-5-|
A-2-2-2-2-2-2--3-3-3-3-3-3--5-5-5-5-5-5--5-5-5-5-5-5-|
E----------------------------------------3-3-3-3-3-3-|

e-2-2-2-2-2-2--5-5-5-5-5-5--5-5-5-5-5-5-|
B-3-3-3-3-3-3--5-5-5-5-5-5--5-5-5-5-5-5-|
G-4-4-4-4-4-4--6-6-6-6-6-6--6-6-6-6-6-6-|
D-4-4-4-4-4-4--7-7-7-7-7-7--7-7-7-7-7-7-|
A-2-2-2-2-2-2--7-7-7-7-7-7--7-7-7-7-7-7-|
E--------------5-5-5-5-5-5--5-5-5-5-5-5-|

Pre-Chorus:

Carl:
*                                     S
e----------------------------------------------------------|
B---3----------------3-------------------------------------|
G------4-----4----------4------4-------9-9-9-9-9-9-9-9-9-9-|
D---------------5-----------------5------------------------|
A----------------------------------------------------------|
E----------------------------------------------------------|

Stan:
S waves...    pull me...
e-3-3-3-3-3--5-5-5-5-5-|
B-5-5-5-5-5--7-7-7-7-7-|
G-5-5-5-5-5--7-7-7-7-7-|
D-5-5-5-5-5--7-7-7-7-7-|
A-3-3-3-3-3--5-5-5-5-5-|
E----------------------|

AOD:
*                               S
e-2--------3--------2--------3--3-3-3-3-3--5-5-5-5-5-|
B-3--------3--------3--------3--5-5-5-5-5--7-7-7-7-7-|
G-4--------4--------4--------4--5-5-5-5-5--7-7-7-7-7-|
D-4--------5--------4--------5--5-5-5-5-5--7-7-7-7-7-|
A-2--------5--------2--------5--3-3-3-3-3--5-5-5-5-5-|
E----------3-----------------3-----------------------|

e----5-|
B----5-|
G----5-|
D----7-|
A----7-|
E-5----|
  T

Chorus:

Carl:
*                                                       C
e-----3-3-3-3-3--------3-3-3-3-3--------5-5-5-5-5--------5-5-5-5-5-|
B-----3-3-3-3-3--------3-3-3-3-3--------5-5-5-5-5--------5-5-5-5-5-|
G-----4-4-4-4-4--------4-4-4-4-4--------5-5-5-5-5--------5-5-5-5-5-|
D-----5-5-5-5-5--------5-5-5-5-5--------7-7-7-7-7--------7-7-7-7-7-|
A-----5-5-5-5-5--------5-5-5-5-5--------7-7-7-7-7--------7-7-7-7-7-|
E-3----------------3----------------5----------------5-------------|
  T                T                T                T

e-----3-3-3-3-3--------3-3-3-3-3--------5-5-5-5-5-|
B-----3-3-3-3-3--------3-3-3-3-3--------5-5-5-5-5-|
G-----4-4-4-4-4--------4-4-4-4-4--------5-5-5-5-5-|
D-----5-5-5-5-5--------5-5-5-5-5--------7-7-7-7-7-|
A-----5-5-5-5-5--------5-5-5-5-5--------7-7-7-7-7-|
E-3----------------3----------------5-------------|
  T                T                T

e---5-5-5-5-5----5-5-5-5-5----5-5-5-5-5--3-3-3-3-3--5-5-5-5-5-|
B---5-5-5-5-5----5-5-5-5-5----5-5-5-5-5--5-5-5-5-5--7-7-7-7-7-|
G---5-5-5-5-5----5-5-5-5-5----5-5-5-5-5--5-5-5-5-5--7-7-7-7-7-|
D---7-7-7-7-7----7-7-7-7-7----7-7-7-7-7--5-5-5-5-5--7-7-7-7-7-|
A---7-7-7-7-7----7-7-7-7-7----7-7-7-7-7--3-3-3-3-3--5-5-5-5-5-|
E-5------------5------------5---------------------------------|
  T            T            T

Stan:
*  La  la  la  la  la  keep it on                        C
e-----3-3-3-3-3--------3-3-3-3-3--------5-5-5-5-5--------5-5-5-5-5-|
B-----3-3-3-3-3--------3-3-3-3-3--------5-5-5-5-5--------5-5-5-5-5-|
G-----4-4-4-4-4--------4-4-4-4-4--------5-5-5-5-5--------5-5-5-5-5-|
D-----5-5-5-5-5--------5-5-5-5-5--------7-7-7-7-7--------7-7-7-7-7-|
A-----5-5-5-5-5--------5-5-5-5-5--------7-7-7-7-7--------7-7-7-7-7-|
E-3----------------3----------------5----------------5-------------|
  T                T                T                T
  Melt my plastik heart and help me move on...
e-----3-3-3-3-3--------3-3-3-3-3--------5-5-5-5-5-|
B-----3-3-3-3-3--------3-3-3-3-3--------5-5-5-5-5-|
G-----4-4-4-4-4--------4-4-4-4-4--------5-5-5-5-5-|
D-----5-5-5-5-5--------5-5-5-5-5--------7-7-7-7-7-|
A-----5-5-5-5-5--------5-5-5-5-5--------7-7-7-7-7-|
E-3----------------3----------------5-------------|
  T                T                T
  oh...            oh...            oh... and oh.
e---5-5-5-5-5----5-5-5-5-5----5-5-5-5-5--3-3-3-3-3--5-5-5-5-5-|
B---5-5-5-5-5----5-5-5-5-5----5-5-5-5-5--5-5-5-5-5--7-7-7-7-7-|
G---5-5-5-5-5----5-5-5-5-5----5-5-5-5-5--5-5-5-5-5--7-7-7-7-7-|
D---7-7-7-7-7----7-7-7-7-7----7-7-7-7-7--5-5-5-5-5--7-7-7-7-7-|
A---7-7-7-7-7----7-7-7-7-7----7-7-7-7-7--3-3-3-3-3--5-5-5-5-5-|
E-5------------5------------5---------------------------------|
  T            T            T

COD:

C
e-8-8-8--7--5-|
B-8-8-8--7--5-|
G-------------|
D-------------|
A-------------|
E-------------|

AOD:
*
e-----3-3-3-3-3--------3-3-3-3-3--------5-5-5-5-5--------5-5-5-5-5-|
B-----3-3-3-3-3--------3-3-3-3-3--------5-5-5-5-5--------5-5-5-5-5-|
G-----4-4-4-4-4--------4-4-4-4-4--------5-5-5-5-5--------5-5-5-5-5-|
D-----5-5-5-5-5--------5-5-5-5-5--------7-7-7-7-7--------7-7-7-7-7-|
A-----5-5-5-5-5--------5-5-5-5-5--------7-7-7-7-7--------7-7-7-7-7-|
E-3----------------3----------------5----------------5-------------|
  T                T                T                T

e-----3-3-3-3-3--------3-3-3-3-3--------5-5-5-5-5-|
B-----3-3-3-3-3--------3-3-3-3-3--------5-5-5-5-5-|
G-----4-4-4-4-4--------4-4-4-4-4--------5-5-5-5-5-|
D-----5-5-5-5-5--------5-5-5-5-5--------7-7-7-7-7-|
A-----5-5-5-5-5--------5-5-5-5-5--------7-7-7-7-7-|
E-3----------------3----------------5-------------|
  T                T                T

e---5-5-5-5-5----5-5-5-5-5----5-5-5-5-5--3-3-3-3-3--5-5-5-5-5-|
B---5-5-5-5-5----5-5-5-5-5----5-5-5-5-5--5-5-5-5-5--7-7-7-7-7-|
G---5-5-5-5-5----5-5-5-5-5----5-5-5-5-5--5-5-5-5-5--7-7-7-7-7-|
D---7-7-7-7-7----7-7-7-7-7----7-7-7-7-7--5-5-5-5-5--7-7-7-7-7-|
A---7-7-7-7-7----7-7-7-7-7----7-7-7-7-7--3-3-3-3-3--5-5-5-5-5-|
E-5------------5------------5---------------------------------|
  T            T            T

Verse 3:

Carl:

e-x----x-x-x-x-x---x-----x-x-x-x-x--x------x-x-x-x-x-|
B-x----x-x-x-x-x---x-----x-x-x-x-x--x------x-x-x-x-x-|
G-x----x-x-x-x-x---x-----x-x-x-x-x--x------x-x-x-x-x-|
D-x----x-x-x-x-x---x-----x-x-x-x-x--x------x-x-x-x-x-|
A-x----x-x-x-x-x---x-----x-x-x-x-x--x------x-x-x-x-x-|
E-x----------------x----------------x----------------|

e-x----x-x-x-x-x---x-----x-x-x-x-x--x------x-x-x-x-x-|
B-x----x-x-x-x-x---x-----x-x-x-x-x--x------x-x-x-x-x-|
G-x----x-x-x-x-x---x-----x-x-x-x-x--x------x-x-x-x-x-|
D-x----x-x-x-x-x---x-----x-x-x-x-x--x------x-x-x-x-x-|
A-x----x-x-x-x-x---x-----x-x-x-x-x--x------x-x-x-x-x-|
E-x----------------x----------------x----------------|

e-x----x-x-x-x-x---x-----x-x-x-x-x--x------x-x-x-x-x-|
B-x----x-x-x-x-x---x-----x-x-x-x-x--x------x-x-x-x-x-|
G-x----x-x-x-x-x---x-----x-x-x-x-x--x------x-x-x-x-x-|
D-x----x-x-x-x-x---x-----x-x-x-x-x--x------x-x-x-x-x-|
A-x----x-x-x-x-x---x-----x-x-x-x-x--x------x-x-x-x-x-|
E-x----------------x----------------x----------------|
                                           C
e-x----x-x-x-x-x---x-----x-x-x-x-x--x------x-x-x-x-x-|
B-x----x-x-x-x-x---x-----x-x-x-x-x--x------x-x-x-x-x-|
G-x----x-x-x-x-x---x-----x-x-x-x-x--x------x-x-x-x-x-|
D-x----x-x-x-x-x---x-----x-x-x-x-x--x------x-x-x-x-x-|
A-x----x-x-x-x-x---x-----x-x-x-x-x--x------x-x-x-x-x-|
E-x----------------x----------------x----------------|


Stan:
*      for life...     and...           romance...
e-----3-3-3-3-3--------3-3-3-3-3--------3-3-3-3-3---------|
B-----3-3-3-3-3--------3-3-3-3-3--------3-3-3-3-3---------|
G-----4-4-4-4-4--------4-4-4-4-4--------4-4-4-4-4---------|
D-----5-5-5-5-5--------5-5-5-5-5--------5-5-5-5-5---------|
A-----5-5-5-5-5--------5-5-5-5-5--------5-5-5-5-5---------|
E-3----------------3----------------3-------------3-5-3-3-|
  T                T                T
      so many           casualties...   these...
e-----5-5-5-5-5--------5-5-5-5-5--------5-5-5-5-5---------|
B-----5-5-5-5-5--------5-5-5-5-5--------5-5-5-5-5---------|
G-----5-5-5-5-5--------5-5-5-5-5--------5-5-5-5-5---------|
D-----7-7-7-7-7--------7-7-7-7-7--------7-7-7-7-7---------|
A-----7-7-7-7-7--------7-7-7-7-7--------7-7-7-7-7---------|
E-5----------------5----------------5-------------7-7-5-5-|
  T                T                T

COD:
                                          C
e-----------------------------------------5-5-5-5---------|
B-----------------------------------------5-5-5-5---------|
G-----------------------------------------5-5-5-5---------|
D-----------------------------------------7-7-7-7---------|
A-----------------------------------------7-7-7-7---------|
E-------------------------------------------------7-7-5-5-|


AOD:
*
e------3--3------------3--3------------3--3-|
B------3--3------------3--3------------3--3-|
G------4--4------------4--4------------4--4-|
D-------------------------------------------|
A-------------------------------------------|
E-------------------------------------------|
                                       C
e------5--5------------5--5------------5-|
B------5--5------------5--5------------5-|
G------5--5------------5--5------------5-|
D----------------------------------------|
A----------------------------------------|
E----------------------------------------|
Добавлено: 15.08.2013
Другие материалы по этой песне:
  • Аккорды и текст

Страница создана 15.08.2013
http://primanota.ru/dirty-pretty-things/plastik-hearts-chords.htm
Привет, Гость.
Предлагаем пройти революционный курс по гитаре.
Подарок от PrimaNota.Ru, забирай!