PrimaNota.ru - самый крупный в мире бесплатный архив песенных текстов, аккордов, табулатур и нот


Dirty Pretty Things - Kicks Or Consumption - текст песни, таба, бас-таба, видео

Регистрация Запомнить меня
Войти через:  Facebook Google Twitter Vk Yandex Mail.ru

Dirty Pretty Things - Kicks Or Consumption - текст песни, таба, бас-таба, видео

Печатать
Просмотров: 96
    Dirty Pretty Things
    Kicks Or Consumption
Barat/Rossomando/Hammond/Powell

Guitar 1: Carl Barat (Carl) Lead Electric
Guitar 2: Anthony Rossomando (Stan) Ryhtym Electric

Intro:

Carl:
*
e------------------------------------------------|
B------------------------------------------------|
G-13-13--13-11-11--11-9-9--9-8-8--8--5-----5-6-8-|
D--------------------------------------6-6-------|
A------------------------------------------------|
E------------------------------------------------|

e------------------------------------------------|
B------------------------------------------------|
G-13-13--13-11-11--11-9-9--9-8-8--8--5-----5-6-8-|
D--------------------------------------6-6-------|
A------------------------------------------------|
E------------------------------------------------|

Stan:

e-4-4-----7-7-----4-4-----4-4-----7-7-----4-4-|
B-5-5-----9-9-----4-4-----5-5-----9-9-----4-4-|
G-6-6-----9-9-----5-5-----6-6-----9-9-----5-5-|
D-6-6-----9-9-----6-6-----6-6-----9-9-----6-6-|
A-4-4-----7-7-----6-6-----4-4-----7-7-----6-6-|
E-----------------4-4---------------------4-4-|
*
e-4--4----------------7-7------------4-4-|
B-5--5----------------9-9------------4-4-|
G-6--6----------------9-9------------5-5-|
D-6--6----------------9-9------------6-6-|
A-4--4----------------7-7------------6-6-|
E------------------------------------4-4-|

e-4--4----------------7-7------------4-4-|
B-5--5----------------9-9------------4-4-|
G-6--6----------------9-9------------5-5-|
D-6--6----------------9-9------------6-6-|
A-4--4----------------7-7------------6-6-|
E------------------------------------4-4-|

Verse:

Carl:
*
e------------|
B------------|
G-13--11--13-|
D------------|
A------------|
E------------|

*
e------------|
B------------|
G-13--11--13-|
D------------|
A------------|
E------------|

e----------------------|
B-14-14-14--12-12---7b-|
G-13-13-13--11-11------|
D----------------------|
A----------------------|
E----------------------|

Stan:
      After a month our friendship waned *
e-4--4----------------7-7------------4-4-|
B-5--5----------------9-9------------4-4-|
G-6--6----------------9-9------------5-5-|
D-6--6----------------9-9------------6-6-|
A-4--4----------------7-7------------6-6-|
E------------------------------------4-4-|
     Cause you're ambitious to a fault
e-4--4----------------7-7------------4-4-|
B-5--5----------------9-9------------4-4-|
G-6--6----------------9-9------------5-5-|
D-6--6----------------9-9------------6-6-|
A-4--4----------------7-7------------6-6-|
E------------------------------------4-4-|
      How did I let you in my brain      *
e-4--4----------------7-7------------4-4-|
B-5--5----------------9-9------------4-4-|
G-6--6----------------9-9------------5-5-|
D-6--6----------------9-9------------6-6-|
A-4--4----------------7-7------------6-6-|
E------------------------------------4-4-|
Just look in these...
e----------------------|
B-14-14-14--12-12---7b-|
G-13-13-13--11-11------|
D----------------------|
A----------------------|
E----------------------|

Chorus:

Carl:
*
e-------------------------------------------------------------------------|
B-------------------------------------------------------------------------|
G-13-13-13-13-13-13-13-13-------------------------13-13-13-13-13-13-13-13-|
D-------------------------11-11-11-11-11-11-11-11-------------------------|
A-------------------------------------------------------------------------|
E-------------------------------------------------------------------------|

e-----------------------------------------------------------------|
B-------------------------12-12-12-12-12-12-12-12-------------12b-|
G-------------------------------------------------13--11--13--11b-|
D-11-11-11-11-11-11-11-11-----------------------------------------|
A-----------------------------------------------------------------|
E-----------------------------------------------------------------|

e-------------------------------------------------------------------------|
B-------------------------------------------------------------------------|
G-13-13-13-13-13-13-13-13-------------------------13-13-13-13-13-13-13-13-|
D-------------------------11-11-11-11-11-11-11-11-------------------------|
A-------------------------------------------------------------------------|
E-------------------------------------------------------------------------|

e-----------------------------------------------------------------|
B-------------------------12-12-12-12-12-12-12-12-------------12b-|
G-------------------------------------------------13--11--13--11b-|
D-11-11-11-11-11-11-11-11-----------------------------------------|
A-----------------------------------------------------------------|
E-----------------------------------------------------------------|

e---------------------------------------------------|
B---------------------------------------------------|
G-13-13-13-13-13-13-13-13-13-13-13-13-13-13-13-13-\-|
D---------------------------------------------------|
A---------------------------------------------------|
E---------------------------------------------------|

Stan:
*       I've been       lost a time or           two not
e-4-----4-----4-----4-----7-----7-----7-----7------4-----4-----4-----4-|
B-5-----5-----5-----5-----9-----9-----9-----9------5-----5-----5-----5-|
G-6-----6-----6-----6-----9-----9-----9-----9------6-----6-----6-----6-|
D-6-----6-----6-----6-----9-----9-----9-----9------6-----6-----6-----6-|
A-4-----4-----4-----4-----7-----7-----7-----7------4-----4-----4-----4-|
E----------------------------------------------------------------------|
     knowing what is        evil or                where to go.
e-7-----7-----7-----7-----11-11-11-11-11-11-11-11--7-7-7-7-7-7-7-7-|
B-9-----9-----9-----9-----13-13-13-13-13-13-13-13--7-7-7-7-7-7-7-7-|
G-9-----9-----9-----9-----13-13-13-13-13-13-13-13--8-8-8-8-8-8-8-8-|
D-9-----9-----9-----9-----13-13-13-13-13-13-13-13--9-9-9-9-9-9-9-9-|
A-7-----7-----7-----7-----11-11-11-11-11-11-11-11--9-9-9-9-9-9-9-9-|
E--------------------------------------------------7-7-7-7-7-7-7-7-|
         No prizes        no afterglow
e-4-----4-----4-----4-----7-----7-----7-----7------4-----4-----4-----4-|
B-5-----5-----5-----5-----9-----9-----9-----9------5-----5-----5-----5-|
G-6-----6-----6-----6-----9-----9-----9-----9------6-----6-----6-----6-|
D-6-----6-----6-----6-----9-----9-----9-----9------6-----6-----6-----6-|
A-4-----4-----4-----4-----7-----7-----7-----7------4-----4-----4-----4-|
E----------------------------------------------------------------------|
 nothing left for you   but   kicks or con    sumption.
e-7-----7-----7-----7-----11-11-11-11-11-11-11-11--7-7-7-7-7-7-7-7-|
B-9-----9-----9-----9-----13-13-13-13-13-13-13-13--7-7-7-7-7-7-7-7-|
G-9-----9-----9-----9-----13-13-13-13-13-13-13-13--8-8-8-8-8-8-8-8-|
D-9-----9-----9-----9-----13-13-13-13-13-13-13-13--9-9-9-9-9-9-9-9-|
A-7-----7-----7-----7-----11-11-11-11-11-11-11-11--9-9-9-9-9-9-9-9-|
E--------------------------------------------------7-7-7-7-7-7-7-7-|
        Thought Japan     was out of bounds         but all the boys
e-4-----4-----4-----4-----7-----7-----7-----7------4-----4-----4-----4-|
B-5-----5-----5-----5-----9-----9-----9-----9------5-----5-----5-----5-|
G-6-----6-----6-----6-----9-----9-----9-----9------6-----6-----6-----6-|
D-6-----6-----6-----6-----9-----9-----9-----9------6-----6-----6-----6-|
A-4-----4-----4-----4-----7-----7-----7-----7------4-----4-----4-----4-|
E----------------------------------------------------------------------|
     just go to town        oh no  and its happening again.
e-7-----7-----7-----7-----11-11-11-11-11-11-11-11--7-7-7-7-7-7-7-7-|
B-9-----9-----9-----9-----13-13-13-13-13-13-13-13--7-7-7-7-7-7-7-7-|
G-9-----9-----9-----9-----13-13-13-13-13-13-13-13--8-8-8-8-8-8-8-8-|
D-9-----9-----9-----9-----13-13-13-13-13-13-13-13--9-9-9-9-9-9-9-9-|
A-7-----7-----7-----7-----11-11-11-11-11-11-11-11--9-9-9-9-9-9-9-9-|
E--------------------------------------------------7-7-7-7-7-7-7-7-|


Post-Chorus:

Carl:
*
e------------------------------------------------|
B------------------------------------------------|
G-13-13--13-11-11--11-9-9--9-8-8--8--5-----5-6-8-|
D--------------------------------------6-6-------|
A------------------------------------------------|
E------------------------------------------------|

e------------------------------------------------|
B------------------------------------------------|
G-13-13--13-11-11--11-9-9--9-8-8--8--5-----5-6-8-|
D--------------------------------------6-6-------|
A------------------------------------------------|
E------------------------------------------------|

Stan:
*
e-4--4----------------7-7------------4-4-|
B-5--5----------------9-9------------4-4-|
G-6--6----------------9-9------------5-5-|
D-6--6----------------9-9------------6-6-|
A-4--4----------------7-7------------6-6-|
E------------------------------------4-4-|

e-4--4----------------7-7------------4-4-|
B-5--5----------------9-9------------4-4-|
G-6--6----------------9-9------------5-5-|
D-6--6----------------9-9------------6-6-|
A-4--4----------------7-7------------6-6-|
E------------------------------------4-4-|

Verse 2:

Carl:
*
e------------|
B------------|
G-13--11--13-|
D------------|
A------------|
E------------|

*
e------------|
B------------|
G-13--11--13-|
D------------|
A------------|
E------------|

e----------------------|
B-14-14-14--12-12---7b-|
G-13-13-13--11-11------|
D----------------------|
A----------------------|
E----------------------|

Stan:
      You and I have fallen out again *
e-4--4----------------7-7------------4-4-|
B-5--5----------------9-9------------4-4-|
G-6--6----------------9-9------------5-5-|
D-6--6----------------9-9------------6-6-|
A-4--4----------------7-7------------6-6-|
E------------------------------------4-4-|
       ...  to number ones
e-4--4----------------7-7------------4-4-|
B-5--5----------------9-9------------4-4-|
G-6--6----------------9-9------------5-5-|
D-6--6----------------9-9------------6-6-|
A-4--4----------------7-7------------6-6-|
E------------------------------------4-4-|
      why do I ...*
e-4--4----------------7-7------------4-4-|
B-5--5----------------9-9------------4-4-|
G-6--6----------------9-9------------5-5-|
D-6--6----------------9-9------------6-6-|
A-4--4----------------7-7------------6-6-|
E------------------------------------4-4-|
Just look in these...
e----------------------|
B-14-14-14--12-12---7b-|
G-13-13-13--11-11------|
D----------------------|
A----------------------|
E----------------------|

Chorus:

Carl:
*
e-------------------------------------------------------------------------|
B-------------------------------------------------------------------------|
G-13-13-13-13-13-13-13-13-------------------------13-13-13-13-13-13-13-13-|
D-------------------------11-11-11-11-11-11-11-11-------------------------|
A-------------------------------------------------------------------------|
E-------------------------------------------------------------------------|

e-----------------------------------------------------------------|
B-------------------------12-12-12-12-12-12-12-12-------------12b-|
G-------------------------------------------------13--11--13--11b-|
D-11-11-11-11-11-11-11-11-----------------------------------------|
A-----------------------------------------------------------------|
E-----------------------------------------------------------------|

e-------------------------------------------------------------------------|
B-------------------------------------------------------------------------|
G-13-13-13-13-13-13-13-13-------------------------13-13-13-13-13-13-13-13-|
D-------------------------11-11-11-11-11-11-11-11-------------------------|
A-------------------------------------------------------------------------|
E-------------------------------------------------------------------------|

e-----------------------------------------------------------------|
B-------------------------12-12-12-12-12-12-12-12-------------12b-|
G-------------------------------------------------13--11--13--11b-|
D-11-11-11-11-11-11-11-11-----------------------------------------|
A-----------------------------------------------------------------|
E-----------------------------------------------------------------|

Stan:
*       I've been       lost a time or           two not
e-4-----4-----4-----4-----7-----7-----7-----7------4-----4-----4-----4-|
B-5-----5-----5-----5-----9-----9-----9-----9------5-----5-----5-----5-|
G-6-----6-----6-----6-----9-----9-----9-----9------6-----6-----6-----6-|
D-6-----6-----6-----6-----9-----9-----9-----9------6-----6-----6-----6-|
A-4-----4-----4-----4-----7-----7-----7-----7------4-----4-----4-----4-|
E----------------------------------------------------------------------|
     knowing what is        evil or                where to go.
e-7-----7-----7-----7-----11-11-11-11-11-11-11-11--7-7-7-7-7-7-7-7-|
B-9-----9-----9-----9-----13-13-13-13-13-13-13-13--7-7-7-7-7-7-7-7-|
G-9-----9-----9-----9-----13-13-13-13-13-13-13-13--8-8-8-8-8-8-8-8-|
D-9-----9-----9-----9-----13-13-13-13-13-13-13-13--9-9-9-9-9-9-9-9-|
A-7-----7-----7-----7-----11-11-11-11-11-11-11-11--9-9-9-9-9-9-9-9-|
E--------------------------------------------------7-7-7-7-7-7-7-7-|
         No prizes        no afterglow
e-4-----4-----4-----4-----7-----7-----7-----7------4-----4-----4-----4-|
B-5-----5-----5-----5-----9-----9-----9-----9------5-----5-----5-----5-|
G-6-----6-----6-----6-----9-----9-----9-----9------6-----6-----6-----6-|
D-6-----6-----6-----6-----9-----9-----9-----9------6-----6-----6-----6-|
A-4-----4-----4-----4-----7-----7-----7-----7------4-----4-----4-----4-|
E----------------------------------------------------------------------|
 nothing left for you   but   kicks or con    sumption.
e-7-----7-----7-----7-----11-11-11-11-11-11-11-11--7-7-7-7-7-7-7-7-|
B-9-----9-----9-----9-----13-13-13-13-13-13-13-13--7-7-7-7-7-7-7-7-|
G-9-----9-----9-----9-----13-13-13-13-13-13-13-13--8-8-8-8-8-8-8-8-|
D-9-----9-----9-----9-----13-13-13-13-13-13-13-13--9-9-9-9-9-9-9-9-|
A-7-----7-----7-----7-----11-11-11-11-11-11-11-11--9-9-9-9-9-9-9-9-|
E--------------------------------------------------7-7-7-7-7-7-7-7-|

Break:

Carl:
*
e---------------------------|
B--------------------12-----|
G-13---------------------13-|
D---------------------------|
A---------------------------|
E---------------------------|
*
e--------14-12--------------|
B-12-------------14---12b---|
G---------------------------|
D---------------------------|
A---------------------------|
E---------------------------|
*
e---------------------------------------|
B----12-12-12-14-12------12-12-12-14-12-|
G-13------------------13----------------|
D---------------------------------------|
A---------------------------------------|
E---------------------------------------|
*
e----------------------------------------|
B---------------12--------12---14--14\-8-|
G-12b----------------13------------13----|
D--------11b-----------------------------|
A----------------------------------------|
E----------------------------------------|


Stan:
*
e-4-4-4-4-4-4-4-4--4--7---4-4-4-4-4-4-4-4--4--7-|
B-5-5-5-5-5-5-5-5--5--9---5-5-5-5-5-5-5-5--5--9-|
G-6-6-6-6-6-6-6-6--6--9---6-6-6-6-6-6-6-6--6--9-|
D-6-6-6-6-6-6-6-6--6--9---6-6-6-6-6-6-6-6--6--9-|
A-4-4-4-4-4-4-4-4--4--7---4-4-4-4-4-4-4-4--4--7-|
E-----------------------------------------------|

e-11-11-11-11-11-11-11-11-11--7-7-7-7-7-7-7-7-7-|
B-13-13-13-13-13-13-13-13-13--9-9-9-9-9-9-9-9-9-|
G-13-13-13-13-13-13-13-13-13--9-9-9-9-9-9-9-9-9-|
D-13-13-13-13-13-13-13-13-13--9-9-9-9-9-9-9-9-9-|
A-11-11-11-11-11-11-11-11-11--7-7-7-7-7-7-7-7-7-|
E-----------------------------------------------|
*
e-11-11-11-11-11-11-11-11-11--7-7-7-7-7-7-7-7-7-|
B-13-13-13-13-13-13-13-13-13--9-9-9-9-9-9-9-9-9-|
G-13-13-13-13-13-13-13-13-13--9-9-9-9-9-9-9-9-9-|
D-13-13-13-13-13-13-13-13-13--9-9-9-9-9-9-9-9-9-|
A-11-11-11-11-11-11-11-11-11--7-7-7-7-7-7-7-7-7-|
E-----------------------------------------------|

e-11-11-11-11-11-11-11-11-11--7-7-7-7-7-7-7-7-7-|
B-13-13-13-13-13-13-13-13-13--9-9-9-9-9-9-9-9-9-|
G-13-13-13-13-13-13-13-13-13--9-9-9-9-9-9-9-9-9-|
D-13-13-13-13-13-13-13-13-13--9-9-9-9-9-9-9-9-9-|
A-11-11-11-11-11-11-11-11-11--7-7-7-7-7-7-7-7-7-|
E-----------------------------------------------|
* clawing...       off...  European...   much...
e-4-4-4-4-4-4-4-4--4--7---4-4-4-4-4-4-4-4--4--7-|
B-5-5-5-5-5-5-5-5--5--9---5-5-5-5-5-5-5-5--5--9-|
G-6-6-6-6-6-6-6-6--6--9---6-6-6-6-6-6-6-6--6--9-|
D-6-6-6-6-6-6-6-6--6--9---6-6-6-6-6-6-6-6--6--9-|
A-4-4-4-4-4-4-4-4--4--7---4-4-4-4-4-4-4-4--4--7-|
E-----------------------------------------------|
she tells me other people...   best of me
e-11-11-11-11-11-11-11-11-11--7-7-7-7-7-7-7-7-7-|
B-13-13-13-13-13-13-13-13-13--9-9-9-9-9-9-9-9-9-|
G-13-13-13-13-13-13-13-13-13--9-9-9-9-9-9-9-9-9-|
D-13-13-13-13-13-13-13-13-13--9-9-9-9-9-9-9-9-9-|
A-11-11-11-11-11-11-11-11-11--7-7-7-7-7-7-7-7-7-|
E-----------------------------------------------|
* so maybe she will never...   best of me
e-11-11-11-11-11-11-11-11-11--7-7-7-7-7-7-7-7-7-|
B-13-13-13-13-13-13-13-13-13--9-9-9-9-9-9-9-9-9-|
G-13-13-13-13-13-13-13-13-13--9-9-9-9-9-9-9-9-9-|
D-13-13-13-13-13-13-13-13-13--9-9-9-9-9-9-9-9-9-|
A-11-11-11-11-11-11-11-11-11--7-7-7-7-7-7-7-7-7-|
E-----------------------------------------------|
 there must be a devil at the BBC
e-11-11-11-11-11-11-11-11-11--7-7-7-7-7-7-7-7-7-|
B-13-13-13-13-13-13-13-13-13--9-9-9-9-9-9-9-9-9-|
G-13-13-13-13-13-13-13-13-13--9-9-9-9-9-9-9-9-9-|
D-13-13-13-13-13-13-13-13-13--9-9-9-9-9-9-9-9-9-|
A-11-11-11-11-11-11-11-11-11--7-7-7-7-7-7-7-7-7-|
E-----------------------------------------------|

Chorus:

Carl:
*
e-------------------------------------------------------------------------|
B-------------------------------------------------------------------------|
G-13-13-13-13-13-13-13-13-------------------------13-13-13-13-13-13-13-13-|
D-------------------------11-11-11-11-11-11-11-11-------------------------|
A-------------------------------------------------------------------------|
E-------------------------------------------------------------------------|

e-----------------------------------------------------------------|
B-------------------------12-12-12-12-12-12-12-12-------------12b-|
G-------------------------------------------------13--11--13--11b-|
D-11-11-11-11-11-11-11-11-----------------------------------------|
A-----------------------------------------------------------------|
E-----------------------------------------------------------------|

e-------------------------------------------------------------------------|
B-------------------------------------------------------------------------|
G-13-13-13-13-13-13-13-13-------------------------13-13-13-13-13-13-13-13-|
D-------------------------11-11-11-11-11-11-11-11-------------------------|
A-------------------------------------------------------------------------|
E-------------------------------------------------------------------------|

e-----------------------------------------------------------------|
B-------------------------12-12-12-12-12-12-12-12-------------12b-|
G-------------------------------------------------13--11--13--11b-|
D-11-11-11-11-11-11-11-11-----------------------------------------|
A-----------------------------------------------------------------|
E-----------------------------------------------------------------|

e---------------------------------------------------|
B---------------------------------------------------|
G-13-13-13-13-13-13-13-13-13-13-13-13-13-13-13-13-\-|
D---------------------------------------------------|
A---------------------------------------------------|
E---------------------------------------------------|


e-------------------------------------------------------------------------|
B-------------------------------------------------------------------------|
G-13-13-13-13-13-13-13-13-------------------------13-13-13-13-13-13-13-13-|
D-------------------------11-11-11-11-11-11-11-11-------------------------|
A-------------------------------------------------------------------------|
E-------------------------------------------------------------------------|

e-----------------------------------------------------------------|
B-------------------------12-12-12-12-12-12-12-12-------------12b-|
G-------------------------------------------------13--11--13--11b-|
D-11-11-11-11-11-11-11-11-----------------------------------------|
A-----------------------------------------------------------------|
E-----------------------------------------------------------------|

e-------------------------------------------------------------------------|
B-------------------------------------------------------------------------|
G-13-13-13-13-13-13-13-13-------------------------13-13-13-13-13-13-13-13-|
D-------------------------11-11-11-11-11-11-11-11-------------------------|
A-------------------------------------------------------------------------|
E-------------------------------------------------------------------------|

e-----------------------------------------------------------------|
B-------------------------12-12-12-12-12-12-12-12-------------12b-|
G-------------------------------------------------13--11--13--11b-|
D-11-11-11-11-11-11-11-11-----------------------------------------|
A-----------------------------------------------------------------|
E-----------------------------------------------------------------|

e---------------------------------------------------|
B---------------------------------------------------|
G-13-13-13-13-13-13-13-13-13-13-13-13-13-13-13-13-\-|
D---------------------------------------------------|
A---------------------------------------------------|
E---------------------------------------------------|

Stan:
*
e-4-----4-----4-----4-----7-----7-----7-----7------4-----4-----4-----4-|
B-5-----5-----5-----5-----9-----9-----9-----9------5-----5-----5-----5-|
G-6-----6-----6-----6-----9-----9-----9-----9------6-----6-----6-----6-|
D-6-----6-----6-----6-----9-----9-----9-----9------6-----6-----6-----6-|
A-4-----4-----4-----4-----7-----7-----7-----7------4-----4-----4-----4-|
E----------------------------------------------------------------------|

e-4-----4-----4-----4-----11-11-11-11-11-11-11-11--7-7-7-7-7-7-7-7-|
B-5-----5-----5-----5-----13-13-13-13-13-13-13-13--7-7-7-7-7-7-7-7-|
G-6-----6-----6-----6-----13-13-13-13-13-13-13-13--8-8-8-8-8-8-8-8-|
D-6-----6-----6-----6-----13-13-13-13-13-13-13-13--9-9-9-9-9-9-9-9-|
A-4-----4-----4-----4-----11-11-11-11-11-11-11-11--9-9-9-9-9-9-9-9-|
E--------------------------------------------------7-7-7-7-7-7-7-7-|

e-4-----4-----4-----4-----7-----7-----7-----7------4-----4-----4-----4-|
B-5-----5-----5-----5-----9-----9-----9-----9------5-----5-----5-----5-|
G-6-----6-----6-----6-----9-----9-----9-----9------6-----6-----6-----6-|
D-6-----6-----6-----6-----9-----9-----9-----9------6-----6-----6-----6-|
A-4-----4-----4-----4-----7-----7-----7-----7------4-----4-----4-----4-|
E----------------------------------------------------------------------|

e-4-----4-----4-----4-----11-11-11-11-11-11-11-11--7-7-7-7-7-7-7-7-|
B-5-----5-----5-----5-----13-13-13-13-13-13-13-13--7-7-7-7-7-7-7-7-|
G-6-----6-----6-----6-----13-13-13-13-13-13-13-13--8-8-8-8-8-8-8-8-|
D-6-----6-----6-----6-----13-13-13-13-13-13-13-13--9-9-9-9-9-9-9-9-|
A-4-----4-----4-----4-----11-11-11-11-11-11-11-11--9-9-9-9-9-9-9-9-|
E--------------------------------------------------7-7-7-7-7-7-7-7-|

e-4-4-4-4--7-7-7-7--4-4-4-4--7-7-7-7-11-11-11-11--7-|
B-5-5-5-5--9-9-9-9--5-5-5-5--9-9-9-9-13-13-13-13--7-|
G-6-6-6-6--9-9-9-9--6-6-6-6--9-9-9-9-13-13-13-13--8-|
D-6-6-6-6--9-9-9-9--6-6-6-6--9-9-9-9-13-13-13-13--9-|
A-4-4-4-4--7-7-7-7--4-4-4-4--7-7-7-7-11-11-11-11--9-|
E-------------------------------------------------7-|

        I've been       lost a time or           two not
e-4-----4-----4-----4-----7-----7-----7-----7------4-----4-----4-----4-|
B-5-----5-----5-----5-----9-----9-----9-----9------5-----5-----5-----5-|
G-6-----6-----6-----6-----9-----9-----9-----9------6-----6-----6-----6-|
D-6-----6-----6-----6-----9-----9-----9-----9------6-----6-----6-----6-|
A-4-----4-----4-----4-----7-----7-----7-----7------4-----4-----4-----4-|
E----------------------------------------------------------------------|
     knowing what is        evil or                where to go.
e-7-----7-----7-----7-----11-11-11-11-11-11-11-11--7-7-7-7-7-7-7-7-|
B-9-----9-----9-----9-----13-13-13-13-13-13-13-13--7-7-7-7-7-7-7-7-|
G-9-----9-----9-----9-----13-13-13-13-13-13-13-13--8-8-8-8-8-8-8-8-|
D-9-----9-----9-----9-----13-13-13-13-13-13-13-13--9-9-9-9-9-9-9-9-|
A-7-----7-----7-----7-----11-11-11-11-11-11-11-11--9-9-9-9-9-9-9-9-|
E--------------------------------------------------7-7-7-7-7-7-7-7-|
         No prizes        no afterglow
e-4-----4-----4-----4-----7-----7-----7-----7------4-----4-----4-----4-|
B-5-----5-----5-----5-----9-----9-----9-----9------5-----5-----5-----5-|
G-6-----6-----6-----6-----9-----9-----9-----9------6-----6-----6-----6-|
D-6-----6-----6-----6-----9-----9-----9-----9------6-----6-----6-----6-|
A-4-----4-----4-----4-----7-----7-----7-----7------4-----4-----4-----4-|
E----------------------------------------------------------------------|
 nothing left for you   but   kicks or con    sumption.
e-7-----7-----7-----7-----11-11-11-11-11-11-11-11--7-7-7-7-7-7-7-7-|
B-9-----9-----9-----9-----13-13-13-13-13-13-13-13--7-7-7-7-7-7-7-7-|
G-9-----9-----9-----9-----13-13-13-13-13-13-13-13--8-8-8-8-8-8-8-8-|
D-9-----9-----9-----9-----13-13-13-13-13-13-13-13--9-9-9-9-9-9-9-9-|
A-7-----7-----7-----7-----11-11-11-11-11-11-11-11--9-9-9-9-9-9-9-9-|
E--------------------------------------------------7-7-7-7-7-7-7-7-|

Outro:

Carl:
*
e------------------------------------------------|
B------------------------------------------------|
G-13-13--13-11-11--11-9-9--9-8-8--8--5-----5-6-8-|
D--------------------------------------6-6-------|
A------------------------------------------------|
E------------------------------------------------|

e------------------------------------------------|
B------------------------------------------------|
G-13-13--13-11-11--11-9-9--9-8-8--8--5-----5-6-8-|
D--------------------------------------6-6-------|
A------------------------------------------------|
E------------------------------------------------|

e------------------------------------------------|
B------------------------------------------------|
G-13-13--13-11-11--11-9-9--9-8-8--8--5-----5-6-8-|
D--------------------------------------6-6-------|
A------------------------------------------------|
E------------------------------------------------|

e----------------------|
B-14-14-14--12-12---7b-|
G-13-13-13--11-11------|
D----------------------|
A----------------------|
E----------------------|

Stan:
*
e-4--4----------------7-7------------4-4-|
B-5--5----------------9-9------------4-4-|
G-6--6----------------9-9------------5-5-|
D-6--6----------------9-9------------6-6-|
A-4--4----------------7-7------------6-6-|
E------------------------------------4-4-|

e-4--4----------------7-7------------4-4-|
B-5--5----------------9-9------------4-4-|
G-6--6----------------9-9------------5-5-|
D-6--6----------------9-9------------6-6-|
A-4--4----------------7-7------------6-6-|
E------------------------------------4-4-|

e-4--4----------------7-7------------4-4-|
B-5--5----------------9-9------------4-4-|
G-6--6----------------9-9------------5-5-|
D-6--6----------------9-9------------6-6-|
A-4--4----------------7-7------------6-6-|
E------------------------------------4-4-|

e----------------------|
B-14-14-14--12-12---7b-|
G-13-13-13--11-11------|
D----------------------|
A----------------------|
E----------------------|
Добавлено: 01.08.2013
Другие материалы по этой песне:
  • Аккорды и текст

Страница создана 01.08.2013
http://primanota.ru/dirty-pretty-things/kicks-or-consumption-chords.htm
Привет, Гость.
Предлагаем пройти революционный курс по гитаре.
Подарок от PrimaNota.Ru, забирай!