PrimaNota.ru - самый крупный в мире бесплатный архив песенных текстов, аккордов, табулатур и нот


Dirty Pretty Things - If You Love A Woman - текст песни, таба, видео

Регистрация Запомнить меня
Войти через:  Facebook Google Twitter Vk Yandex Mail.ru

Dirty Pretty Things - If You Love A Woman - текст песни, таба, видео

Печатать
Просмотров: 113
//Dirty Pretty Things-If You Love A Woman
// Tabbed by Richie

The file is much better its not all messed up.  I got this from a guy on dpt's forum and 
thought i would share it with every one its 100% accurate, and its not confusing which 
always a plus.


 ~ = Harmonic

intro
guitar 1

e-/12-12----11----10----9-7-6-12----11----10----9-7-7-7-6-6-6-|
b-/12----12----12----12----------12----12----12---------------|
g-------------------------------------------------------------|
d-------------------------------------------------------------|
a-------------------------------------------------------------|
e-------------------------------------------------------------|
intro
guitar 2
                             ~  ~  ~  ~  ~  ~  ~  ~  ~
e----------------------------12-12-12-12-12-12-12-12-12-------|
b-------------------------------------------------------------|
g-------------------------------------------------------------|
d-------------------------------------------------------------|
a-------------------------------------------------------------|
e-------------------------------------------------------------|
intro
guitar 1

e-12-12-11-11-10-10-9-9-12-12-11-11-10-10-9-9-12-12-11-11-10-10-9-9-12-12-11-11-10-10-9-9--|
b------------------------------------------------------------------------------------------|
g------------------------------------------------------------------------------------------|
d------------------------------------------------------------------------------------------|
a------------------------------------------------------------------------------------------|
e------------------------------------------------------------------------------------------|
intro
guitar 2

e-x-x-17-x-15-x-15-15-15-14-14-12-12-11-11-12-12-----------------------------------------

b------------------------------------------------x-x-14-12-12-12-12-12-12-10-8-8-7-7-8-8-|
g----------------------------------------------------------------------------------------|
d----------------------------------------------------------------------------------------|
a----------------------------------------------------------------------------------------|
e----------------------------------------------------------------------------------------|
intro
guitar 1

e-7-7-7-7-7-5-5-5-5-5-|
b-7-7-7-7-9-5-5-5-5-5-|
g-8-8-8-8-9-6-6-6-6-6-|
d-9-9-9-9-9-7-7-7-7-7-| x4
a-9-9-9-9-7-7-7-7-7-7-|
e-7-7-7-7---5-5-5-5-5-|
intro
guitar 2

e-----------------------------------------------------------------------------------------------|
b-9-7-7-7-7-7-7-7-7-7-7-7-9-7-7-7-7-7-7-7-7-7-7-7-9-7-7-7-7-7-7-7-7-9-9-9-9-7-7-7-7-7-7-9-7-7---|
g-----------6-7-6-7-6-7-6-----------7-7-6-4-4-4-4-----------6-7-6-7-7-7-7-----------6-7-7-7-6-4-|
d-----------------------------------------------------------------------------------------------|
a-----------------------------------------------------------------------------------------------|
e-----------------------------------------------------------------------------------------------|
verse
guitar 1

e-7-7-7-7-7-5-5-5-5-5-|
b-7-7-7-7-9-5-5-5-5-5-|
g-8-8-8-8-9-6-6-6-6-6-|
d-9-9-9-9-9-7-7-7-7-7-| x4
a-9-9-9-9-7-7-7-7-7-7-|
e-7-7-7-7---5-5-5-5-5-|

chorus
guitar 1

i need a woman, a woman...
e-10-10-10-10-10-10-10-10-9--9--9--9--7-7-5-5-|
b-12-12-12-12-12-12-12-12-11-11-11-11-9-9-7-7-|
g-12-12-12-12-12-12-12-12-11-11-11-11-9-9-7-7-|
d-12-12-12-12-12-12-12-12-11-11-11-11-9-9-7-7-|
a-10-10-10-10-10-10-10-10-9--9--9--9--7-7-5-5-|
e---------------------------------------------|
chorus
guitar 1

if you love a woman...
e-7-7-7-7-7-5-5-xx-10-9--8--|
b-7-7-7-7-9-5-5-xx-10-9--8--|
g-8-8-8-8-9-6-6-xx-11-10-9--|
d-9-9-9-9-9-7-7-xx-12-11-10-| x4
a-9-9-9-9-7-7-7-xx-12-11-10-|
e-7-7-7-7---5-5-xx-10-9--8--|
after chorus
guitar 1

e-7-7-7-7-7-5-5-5-5-5-|
b-7-7-7-7-9-5-5-5-5-5-|
g-8-8-8-8-9-6-6-6-6-6-|
d-9-9-9-9-9-7-7-7-7-7-| x2
a-9-9-9-9-7-7-7-7-7-7-|
e-7-7-7-7---5-5-5-5-5-|
after chorus
guitar 2

e---------------------------------------------|
b-7-7-7-7-7-7-7-7-9-9-9-9-7-7-7-7-7-7-9-7-7---|
g---------6-7-6-7-7-7-7-----------6-7-7-7-6-4-|
d---------------------------------------------|
a---------------------------------------------|
e---------------------------------------------|

repeat verse


chorus
guitar 1

i need a woman, a woman...
e-10-10-10-10-10-10-10-10-9--9--9--9--7-7-5-5-|
b-12-12-12-12-12-12-12-12-11-11-11-11-9-9-7-7-|
g-12-12-12-12-12-12-12-12-11-11-11-11-9-9-7-7-|
d-12-12-12-12-12-12-12-12-11-11-11-11-9-9-7-7-|
a-10-10-10-10-10-10-10-10-9--9--9--9--7-7-5-5-|
e---------------------------------------------|
chorus
guitar1

if you love a woman...
e-7-7-7-7-7-5-5-xx-10-9--8--7-7-7-7-7-10-10-10-10-9--8--|
b-7-7-7-7-9-5-5-xx-10-9--8--7-7-7-7-9-10-10-10-10-9--8--|
g-8-8-8-8-9-6-6-xx-11-10-9--8-8-8-8-9-11-11-11-11-10-9--|
d-9-9-9-9-9-7-7-xx-12-11-10-9-9-9-9-9-12-12-12-12-11-10-| x2
a-9-9-9-9-7-7-7-xx-12-11-10-9-9-9-9-7-12-12-12-12-11-10-|
e-7-7-7-7---5-5-xx-10-9--8--7-7-7-7---10-10-10-10-9--8--|
bridge
guitar 1

e-9--9--9--9--9--12-12-12-12-12-12-12-12-12-12-12-12-12-12-12-12-12-14-10-10-10-10-10-10-10-10-|
b-11-11-11-11-11-14-12-12-12-12-12-12-12-12-12-12-12-12-12-12-12-12-16-10-10-10-10-10-10-10-10-|
g-11-11-11-11-11-14-13-13-13-13-13-13-13-13-13-13-13-13-13-13-13-13-16-11-11-11-11-11-11-11-11-|
d-11-11-11-11-11-14-14-14-14-14-14-14-14-14-14-14-14-14-14-14-14-14-16-12-12-12-12-12-12-12-12-|
a-9--9--9--9--9--12-14-14-14-14-14-14-14-14-14-14-14-14-14-14-14-14-14-12-12-12-12-12-12-12-12-|
e-------------------12-12-12-12-12-12-12-12-12-12-12-12-12-12-12-12----10-10-10-10-10-10-10-10-|

e-9--8--9--8--9--8--9--7-8--7-8--9-8--9-8--|
b-9--8--9--8--9--8--9--7-8--7-8--9-8--9-8--|
g-10-9--10-9--10-9--10-8-9--8-9--8-9--8-9--|
d-11-10-11-10-11-10-11-9-10-9-10-9-10-9-10-|
a-11-10-11-10-11-10-11-9-10-9-10-9-10-9-10-|
e-9--8--9--8--9--8--9--7-8--7-8--7-8--7-8--|

tab the rest yourself!!!!!!!
Добавлено: 21.10.2013
Другие материалы по этой песне:
  • Аккорды и текст

Страница создана 12.06.2012
http://primanota.ru/dirty-pretty-things/if-you-love-a-woman-chords.htm
Привет, Гость.
Предлагаем пройти революционный курс по гитаре.
Подарок от PrimaNota.Ru, забирай!