PrimaNota.ru - самый крупный в мире бесплатный архив песенных текстов, аккордов, табулатур и нот


Dirty Pretty Things - Hippys Son - текст песни, таба, бас-таба, видео

Регистрация Запомнить меня
Войти через:  Facebook Google Twitter Vk Yandex Mail.ru

Dirty Pretty Things - Hippys Son - текст песни, таба, бас-таба, видео

Печатать
Просмотров: 98
Уроки эстрадного вокала в Санкт-Петербурге
     Dirty Pretty Things
         Hippy Son
Barat/Rossomando/Hammond/Powell



Guitar 1: Carl Barat (Carl)
Guitar 2: Anthony Rossomando (Stan)

Intro 1:

Acoustic:

e-----------------------------------------|
B-----------------------------------------|
G--9--x-x-x-x----9--x-x-x-x----9--x-x-x-x-|
D-10--x-x-x-x---10--x-x-x-x---10--x-x-x-x-|
A-10--x-x-x-x---10--x-x-x-x---10--x-x-x-x-|
E--8--x-x-x-x----8--x-x-x-x----8--x-x-x-x-|
                                           *
e-------------------------------------------|
B-------------------------------------------|
G--8--9--12-12--8--9--12-12--8--9--12-12-12-|
D-10-10--13-13-10-10--13-13-10-10--13-13-13-|
A-10-10--13-13-10-10--13-13-10-10--13-13-13-|
E--8--8--11-11--8--8--11-11--8--8--11-11-11-|

Effects:
*
e-----------------------------|
B-----------------------------|
G-12~~~~-12~~~~-12~~~~-12~~~~-|
D-13~~~~-13~~~~-13~~~~-13~~~~-|
A-13~~~~-13~~~~-13~~~~-13~~~~-|
E-11~~~~-11~~~~-11~~~~-11~~~~-|

Intro 2:

A heavy distortion plays intro 2 also!

Stan:
*
e----------------------------------|
B----------------------------------|
G--8--9--12-12-12---8--9--12-12-12-|
D-10-10--13-13-13--10-10--13-13-13-|
A-10-10--13-13-13--10-10--13-13-13-|
E--8--8--11-11-11---8--8--11-11-11-|

e----------------------------------|
B----------------------------------|
G--8--9--12-12-12---8--9--12-12-12-|
D-10-10--13-13-13--10-10--13-13-13-|
A-10-10--13-13-13--10-10--13-13-13-|
E--8--8--11-11-11---8--8--11-11-11-|

Carl:
*
e----------------------------------|
B---------9----------------9-------|
G--8--9---9---------8--9---9-------|
D-10-10------------10-10-----------|
A----------------------------------|
E----------------------------------|

e----------------------------------|
B---------9----------------9-------|
G--8--9---9---------8--9---9-------|
D-10-10------------10-10-----------|
A----------------------------------|
E----------------------------------|

Verse:

Stan:
*  hippy's son...    porn and...
e----------------------------------|
B----------------------------------|
G--8--9--12-12-12---8--9--12-12-12-|
D-10-10--13-13-13--10-10--13-13-13-|
A-10-10--13-13-13--10-10--13-13-13-|
E--8--8--11-11-11---8--8--11-11-11-|
 virile fertile...     I come...
e----------------------------------|
B----------------------------------|
G--8--9--12-12-12---8--9--12-12-12-|
D-10-10--13-13-13--10-10--13-13-13-|
A-10-10--13-13-13--10-10--13-13-13-|
E--8--8--11-11-11---8--8--11-11-11-|
        related..    all...
e--8--8--8--8--8--8--8--8--8--8--8--8-|
B-10-10-10-10-10-10--9--9--9--9--9--9-|
G-10-10-10-10-10-10-10-10-10-10-10-10-|
D-10-10-10-10-10-10-10-10-10-10-10-10-|
A--8--8--8--8--8--8--8--8--8--8--8--8-|
E-------------------------------------|
    six degrees.
e----------------------------------|
B----------------------------------|
G--8--9--12-12-12---8--9--12-12-12-|
D-10-10--13-13-13--10-10--13-13-13-|
A-10-10--13-13-13--10-10--13-13-13-|
E--8--8--11-11-11---8--8--11-11-11-|

e----------------------------------|
B----------------------------------|
G--8--9--12-12-12---8--9--12-12-12-|
D-10-10--13-13-13--10-10--13-13-13-|
A-10-10--13-13-13--10-10--13-13-13-|
E--8--8--11-11-11---8--8--11-11-11-|
       fire sign...        time...
e----------------------------------|
B----------------------------------|
G--8--9--12-12-12---8--9--12-12-12-|
D-10-10--13-13-13--10-10--13-13-13-|
A-10-10--13-13-13--10-10--13-13-13-|
E--8--8--11-11-11---8--8--11-11-11-|
        thoughts...      rhyme...
e----------------------------------|
B----------------------------------|
G--8--9--12-12-12---8--9--12-12-12-|
D-10-10--13-13-13--10-10--13-13-13-|
A-10-10--13-13-13--10-10--13-13-13-|
E--8--8--11-11-11---8--8--11-11-11-|
    my stories are all told.
e--8--8--8--8--8--8--8--8--8--8--8--8-|
B-10-10-10-10-10-10--9--9--9--9--9--9-|
G-10-10-10-10-10-10-10-10-10-10-10-10-|
D-10-10-10-10-10-10-10-10-10-10-10-10-|
A--8--8--8--8--8--8--8--8--8--8--8--8-|
E-------------------------------------|

Carl:

*
e----------------------------------|
B----------------------------------|
G--8--9----9\---------8--9----9\---|
D-10-10---10\---------10-10--10\---|
A---------10\----------------10\---|
E----------8\-----------------8\---|

e----------------------------------|
B----------------------------------|
G--8--9----9\---------8--9----9\---|
D-10-10---10\---------10-10--10\---|
A---------10\----------------10\---|
E----------8\-----------------8\---|

e--8--8--8--8--8--8--8--8--8--8--8--8-|
B-10-10-10-10-10-10--9--9--9--9--9--9-|
G-10-10-10-10-10-10-10-10-10-10-10-10-|
D-10-10-10-10-10-10-10-10-10-10-10-10-|
A--8--8--8--8--8--8--8--8--8--8--8--8-|
E-------------------------------------|

e----------------------------------|
B----------------------------------|
G--8--9----9\---------8--9----9\---|
D-10-10---10\---------10-10--10\---|
A---------10\----------------10\---|
E----------8\-----------------8\---|

e----------------------------------|
B----------------------------------|
G--8--9----9\---------8--9----9\---|
D-10-10---10\---------10-10--10\---|
A---------10\----------------10\---|
E----------8\-----------------8\---|

e----------------------------------|
B----------------------------------|
G--8--9----9\---------8--9----9\---|
D-10-10---10\---------10-10--10\---|
A---------10\----------------10\---|
E----------8\-----------------8\---|

e----------------------------------|
B----------------------------------|
G--8--9----9\---------8--9----9\---|
D-10-10---10\---------10-10--10\---|
A---------10\----------------10\---|
E----------8\-----------------8\---|

e--8--8--8--8--8--8--8--8--8--8--8--8-|
B-10-10-10-10-10-10--9--9--9--9--9--9-|
G-10-10-10-10-10-10-10-10-10-10-10-10-|
D-10-10-10-10-10-10-10-10-10-10-10-10-|
A--8--8--8--8--8--8--8--8--8--8--8--8-|
E-------------------------------------|

Pre-Chorus:

Stan:
* but it's so...
e----5------------5-------|
B-7--7---------7--7-------|
G-7--7--7--7---7--7--7--7-|
D-7-----7--7---7-----7--7-|
A-5-----5--5---5-----5--5-|
E-------------------------|
  the try and they try...
e-----10-----------------10-----------|
B-12--12-------------12--12-----------|
G-12--12--12-12-12---12--12--12-12-12-|
D-12------12-12-12---12------12-12-12-|
A-10------10-10-10---10------10-10-10-|
E-------------------------------------|
                           hush hush my love
e-12-12-12-10-10-10-10-10-|
B-14-14-14-12-12-12-12-12-|
G-14-14-14-12-12-12-12-12-|
D-14-14-14-12-12-12-12-12-|
A-10-10-10-10-10-10-10-10-|
E-------------------------|

Carl:
*
e----5------------5-------|
B-7--7---------7--7-------|
G-7--7--7--7---7--7--7--7-|
D-7-----7--7---7-----7--7-|
A-5-----5--5---5-----5--5-|
E-------------------------|

e-----10-----------------10-----------|
B-12--12-------------12--12-----------|
G-12--12--12-12-12---12--12--12-12-12-|
D-12------12-12-12---12------12-12-12-|
A-10------10-10-10---10------10-10-10-|
E-------------------------------------|

e-12-12-12-10-10-10-10-10-|
B-14-14-14-12-12-12-12-12-|
G-14-14-14-12-12-12-12-12-|
D-14-14-14-12-12-12-12-12-|
A-10-10-10-10-10-10-10-10-|
E-------------------------|

Chorus:

Stan:
*                              come fall...
e--8--8--8---0---3----8--8--8---0---3---|
B-10-10-10---2---5---10-10-10---2---5---|
G-10-10-10---2---5---10-10-10---2---5---|
D-10-10-10---2---5---10-10-10---2---5---|
A--8--8--8---0---3----8--8--8---0---3---|
E---------------------------------------|
    arms...                  hush hush...
e--8--8--8---0---3----8--8--8---0---3---|
B-10-10-10---2---5---10-10-10---2---5---|
G-10-10-10---2---5---10-10-10---2---5---|
D-10-10-10---2---5---10-10-10---2---5---|
A--8--8--8---0---3----8--8--8---0---3---|
E---------------------------------------|
                               come fall...
e--8--8--8---0---3----8--8--8---0---3---|
B-10-10-10---2---5---10-10-10---2---5---|
G-10-10-10---2---5---10-10-10---2---5---|
D-10-10-10---2---5---10-10-10---2---5---|
A--8--8--8---0---3----8--8--8---0---3---|
E---------------------------------------|
    arms...                  hush hush...
e--8--8--8---0---3----8--8--8---0---3---|
B-10-10-10---2---5---10-10-10---2---5---|
G-10-10-10---2---5---10-10-10---2---5---|
D-10-10-10---2---5---10-10-10---2---5---|
A--8--8--8---0---3----8--8--8---0---3---|
E---------------------------------------|

e--------------------------------|
B--------------------------------|
G-12--12--12-12-12-12-12--12--12-|
D-14--14--14-14-14-14-14--13--10-|
A--------------------------------|
E--------------------------------|

Carl:
*
e--8--8--8---0---3----8--8--8---0---3---|
B-10-10-10---2---5---10-10-10---2---5---|
G-10-10-10---2---5---10-10-10---2---5---|
D-10-10-10---2---5---10-10-10---2---5---|
A--8--8--8---0---3----8--8--8---0---3---|
E---------------------------------------|

e--8--8--8---0---3----8--8--8---0---3---|
B-10-10-10---2---5---10-10-10---2---5---|
G-10-10-10---2---5---10-10-10---2---5---|
D-10-10-10---2---5---10-10-10---2---5---|
A--8--8--8---0---3----8--8--8---0---3---|
E---------------------------------------|

e--8--8--8---0---3----8--8--8---0---3---|
B-10-10-10---2---5---10-10-10---2---5---|
G-10-10-10---2---5---10-10-10---2---5---|
D-10-10-10---2---5---10-10-10---2---5---|
A--8--8--8---0---3----8--8--8---0---3---|
E---------------------------------------|

e--8--8--8---0---3----8--8--8---0---3---|
B-10-10-10---2---5---10-10-10---2---5---|
G-10-10-10---2---5---10-10-10---2---5---|
D-10-10-10---2---5---10-10-10---2---5---|
A--8--8--8---0---3----8--8--8---0---3---|
E---------------------------------------|

e--------------------------------|
B--------------------------------|
G-12--12--12-12-12-12-12--12--12-|
D-14--14--14-14-14-14-14--13--10-|
A--------------------------------|
E--------------------------------|

Post-Chorus:

Stan:
*
e----------------------------------------|
B----------------------------------------|
G--8--9--12-----8--9--12-----8--9--12----|
D-10-10--13----10-10--13----10-10--13----|
A-10-10--13----10-10--13----10-10--13----|
E--8--8--11-----8--8--11-----8--8--11----|

e-----------|
B-----------|
G--8--9--12-|
D-10-10--13-|
A-10-10--13-|
E--8--8--11-|

Carl:
*
e----------------------------------|
B---------9----------------9-------|
G--8--9---9---------8--9---9-------|
D-10-10------------10-10-----------|
A----------------------------------|
E----------------------------------|

e----------------------------------|
B---------9----------------9-------|
G--8--9---9---------8--9---9-------|
D-10-10------------10-10-----------|
A----------------------------------|
E----------------------------------|

Verse 2:

Stan:
*     fathers son...      run...
e----------------------------------|
B----------------------------------|
G--8--9--12-12-12---8--9--12-12-12-|
D-10-10--13-13-13--10-10--13-13-13-|
A-10-10--13-13-13--10-10--13-13-13-|
E--8--8--11-11-11---8--8--11-11-11-|
   bulldog...        rainbows...
e----------------------------------|
B----------------------------------|
G--8--9--12-12-12---8--9--12-12-12-|
D-10-10--13-13-13--10-10--13-13-13-|
A-10-10--13-13-13--10-10--13-13-13-|
E--8--8--11-11-11---8--8--11-11-11-|
   naked to you all...
e--8--8--8--8--8--8--8--8--8--8--8--8-|
B-10-10-10-10-10-10--9--9--9--9--9--9-|
G-10-10-10-10-10-10-10-10-10-10-10-10-|
D-10-10-10-10-10-10-10-10-10-10-10-10-|
A--8--8--8--8--8--8--8--8--8--8--8--8-|
E-------------------------------------|
 agree...
e----------------------------------|
B----------------------------------|
G--8--9--12-12-12---8--9--12-12-12-|
D-10-10--13-13-13--10-10--13-13-13-|
A-10-10--13-13-13--10-10--13-13-13-|
E--8--8--11-11-11---8--8--11-11-11-|
   related to you all...
e--8--8--8--8--8--8--8--8--8--8--8--8-|
B-10-10-10-10-10-10--9--9--9--9--9--9-|
G-10-10-10-10-10-10-10-10-10-10-10-10-|
D-10-10-10-10-10-10-10-10-10-10-10-10-|
A--8--8--8--8--8--8--8--8--8--8--8--8-|
E-------------------------------------|

Carl:
*
e----------------------------------|
B----------------------------------|
G--8--9----9\---------8--9----9\---|
D-10-10---10\---------10-10--10\---|
A---------10\----------------10\---|
E----------8\-----------------8\---|

e----------------------------------|
B----------------------------------|
G--8--9----9\---------8--9----9\---|
D-10-10---10\---------10-10--10\---|
A---------10\----------------10\---|
E----------8\-----------------8\---|

e--8--8--8--8--8--8--8--8--8--8--8--8-|
B-10-10-10-10-10-10--9--9--9--9--9--9-|
G-10-10-10-10-10-10-10-10-10-10-10-10-|
D-10-10-10-10-10-10-10-10-10-10-10-10-|
A--8--8--8--8--8--8--8--8--8--8--8--8-|
E-------------------------------------|

e----------------------------------|
B----------------------------------|
G--8--9----9\---------8--9----9\---|
D-10-10---10\---------10-10--10\---|
A---------10\----------------10\---|
E----------8\-----------------8\---|

e--8--8--8--8--8--8--8--8--8--8--8--8-|
B-10-10-10-10-10-10--9--9--9--9--9--9-|
G-10-10-10-10-10-10-10-10-10-10-10-10-|
D-10-10-10-10-10-10-10-10-10-10-10-10-|
A--8--8--8--8--8--8--8--8--8--8--8--8-|
E-------------------------------------|

Pre-Chorus:

Stan:
* but it's so...
e----5------------5-------|
B-7--7---------7--7-------|
G-7--7--7--7---7--7--7--7-|
D-7-----7--7---7-----7--7-|
A-5-----5--5---5-----5--5-|
E-------------------------|
  the try and they try...
e-----10-----------------10-----------|
B-12--12-------------12--12-----------|
G-12--12--12-12-12---12--12--12-12-12-|
D-12------12-12-12---12------12-12-12-|
A-10------10-10-10---10------10-10-10-|
E-------------------------------------|
                           hush hush my love
e-12-12-12-10-10-10-10-10-|
B-14-14-14-12-12-12-12-12-|
G-14-14-14-12-12-12-12-12-|
D-14-14-14-12-12-12-12-12-|
A-10-10-10-10-10-10-10-10-|
E-------------------------|

Carl:
*
e----5------------5-------|
B-7--7---------7--7-------|
G-7--7--7--7---7--7--7--7-|
D-7-----7--7---7-----7--7-|
A-5-----5--5---5-----5--5-|
E-------------------------|

e-----10-----------------10-----------|
B-12--12-------------12--12-----------|
G-12--12--12-12-12---12--12--12-12-12-|
D-12------12-12-12---12------12-12-12-|
A-10------10-10-10---10------10-10-10-|
E-------------------------------------|

e-12-12-12-10-10-10-10-10-|
B-14-14-14-12-12-12-12-12-|
G-14-14-14-12-12-12-12-12-|
D-14-14-14-12-12-12-12-12-|
A-10-10-10-10-10-10-10-10-|
E-------------------------|

Chorus:

Stan:
*                              come fall...
e--8--8--8---0---3----8--8--8---0---3---|
B-10-10-10---2---5---10-10-10---2---5---|
G-10-10-10---2---5---10-10-10---2---5---|
D-10-10-10---2---5---10-10-10---2---5---|
A--8--8--8---0---3----8--8--8---0---3---|
E---------------------------------------|
    arms...                  hush hush...
e--8--8--8---0---3----8--8--8---0---3---|
B-10-10-10---2---5---10-10-10---2---5---|
G-10-10-10---2---5---10-10-10---2---5---|
D-10-10-10---2---5---10-10-10---2---5---|
A--8--8--8---0---3----8--8--8---0---3---|
E---------------------------------------|
                               come fall...
e--8--8--8---0---3----8--8--8---0---3---|
B-10-10-10---2---5---10-10-10---2---5---|
G-10-10-10---2---5---10-10-10---2---5---|
D-10-10-10---2---5---10-10-10---2---5---|
A--8--8--8---0---3----8--8--8---0---3---|
E---------------------------------------|
    arms...                  hush hush...
e--8--8--8---0---3----8--8--8---0---3---|
B-10-10-10---2---5---10-10-10---2---5---|
G-10-10-10---2---5---10-10-10---2---5---|
D-10-10-10---2---5---10-10-10---2---5---|
A--8--8--8---0---3----8--8--8---0---3---|
E---------------------------------------|

e--------------------------------|
B--------------------------------|
G-12--12--12-12-12-12-12--12--12-|
D-14--14--14-14-14-14-14--13--10-|
A--------------------------------|
E--------------------------------|

Carl:
*
e--8--8--8---0---3----8--8--8---0---3---|
B-10-10-10---2---5---10-10-10---2---5---|
G-10-10-10---2---5---10-10-10---2---5---|
D-10-10-10---2---5---10-10-10---2---5---|
A--8--8--8---0---3----8--8--8---0---3---|
E---------------------------------------|

e--8--8--8---0---3----8--8--8---0---3---|
B-10-10-10---2---5---10-10-10---2---5---|
G-10-10-10---2---5---10-10-10---2---5---|
D-10-10-10---2---5---10-10-10---2---5---|
A--8--8--8---0---3----8--8--8---0---3---|
E---------------------------------------|

e--8--8--8---0---3----8--8--8---0---3---|
B-10-10-10---2---5---10-10-10---2---5---|
G-10-10-10---2---5---10-10-10---2---5---|
D-10-10-10---2---5---10-10-10---2---5---|
A--8--8--8---0---3----8--8--8---0---3---|
E---------------------------------------|

e--8--8--8---0---3----8--8--8---0---3---|
B-10-10-10---2---5---10-10-10---2---5---|
G-10-10-10---2---5---10-10-10---2---5---|
D-10-10-10---2---5---10-10-10---2---5---|
A--8--8--8---0---3----8--8--8---0---3---|
E---------------------------------------|

e--------------------------------|
B--------------------------------|
G-12--12--12-12-12-12-12--12--12-|
D-14--14--14-14-14-14-14--13--10-|
A--------------------------------|
E--------------------------------|

Break:

Stan:
*
e--8--8-----8--8----8--8--8-------|
B-10-10----10-10---10-10-10-----8-|
G-10-10----10-10---10-10-10-8h9---|
D-10-10----10-10---10-10-10-------|
A--8--8-----8--8----8--8--8-------|
E---------------------------------|

e--8----8--8---8--8--8--8-----------|
B-10---10-10--10-10-10----8------11-|
G-10---10-10--10-10-10-------8h9----|
D-10---10-10--10-10-10--------------|
A--8----8--8---8--8--8--------------|
E-----------------------------------|

e--8--8-----8--8----8--8--8-------|
B-10-10----10-10---10-10-10-----8-|
G-10-10----10-10---10-10-10-8h9---|
D-10-10----10-10---10-10-10-------|
A--8--8-----8--8----8--8--8-------|
E---------------------------------|

e--8----8--8---8--8--8--8-----------|
B-10---10-10--10-10-10----8------11-|
G-10---10-10--10-10-10-------8h9----|
D-10---10-10--10-10-10--------------|
A--8----8--8---8--8--8--------------|
E-----------------------------------|

e--8--8--8---8--8--8--8--8---8--8-|
B-10-10-10--10-10-10-10-10--10-10-|
G-10-10-10--10-10-10-10-10--10-10-|
D-10-10-10--10-10-10-10-10--10-10-|
A--8--8--8---8--8--8--8--8---8--8-|
E---------------------------------|

e--8--8--8---8--8--8--8--8---8--8-|
B-10-10-10--10-10-10-10-10--10-10-|
G-10-10-10--10-10-10-10-10--10-10-|
D-10-10-10--10-10-10-10-10--10-10-|
A--8--8--8---8--8--8--8--8---8--8-|
E---------------------------------|

e--8--8--8---8--8--8--8--8---8--8-|
B-10-10-10--10-10-10-10-10--10-10-|
G-10-10-10--10-10-10-10-10--10-10-|
D-10-10-10--10-10-10-10-10--10-10-|
A--8--8--8---8--8--8--8--8---8--8-|
E---------------------------------|


Carl:
*
e--8--8-----8--8----8--8--8-------|
B-10-10----10-10---10-10-10-----8-|
G-10-10----10-10---10-10-10-8h9---|
D-10-10----10-10---10-10-10-------|
A--8--8-----8--8----8--8--8-------|
E---------------------------------|

e--8----8--8---8--8--8--8-----------|
B-10---10-10--10-10-10----8------11-|
G-10---10-10--10-10-10-------8h9----|
D-10---10-10--10-10-10--------------|
A--8----8--8---8--8--8--------------|
E-----------------------------------|

e--8--8-----8--8----8--8--8-------|
B-10-10----10-10---10-10-10-----8-|
G-10-10----10-10---10-10-10-8h9---|
D-10-10----10-10---10-10-10-------|
A--8--8-----8--8----8--8--8-------|
E---------------------------------|

e--8----8--8---8--8--8--8-----------|
B-10---10-10--10-10-10----8------11-|
G-10---10-10--10-10-10-------8h9----|
D-10---10-10--10-10-10--------------|
A--8----8--8---8--8--8--------------|
E-----------------------------------|

e--8--8--8---8--8--8--8--8---8--8-|
B-10-10-10--10-10-10-10-10--10-10-|
G-10-10-10--10-10-10-10-10--10-10-|
D-10-10-10--10-10-10-10-10--10-10-|
A--8--8--8---8--8--8--8--8---8--8-|
E---------------------------------|

e--8--8--8---8--8--8--8--8---8--8-|
B-10-10-10--10-10-10-10-10--10-10-|
G-10-10-10--10-10-10-10-10--10-10-|
D-10-10-10--10-10-10-10-10--10-10-|
A--8--8--8---8--8--8--8--8---8--8-|
E---------------------------------|

e--8--8--8---8--8--8--8--8---8--8-|
B-10-10-10--10-10-10-10-10--10-10-|
G-10-10-10--10-10-10-10-10--10-10-|
D-10-10-10--10-10-10-10-10--10-10-|
A--8--8--8---8--8--8--8--8---8--8-|
E---------------------------------|

Outro:

Stan:
*   baby boy...          destroy...
e----------------------------------|
B----------------------------------|
G--8--9--12-12-12---8--9--12-12-12-|
D-10-10--13-13-13--10-10--13-13-13-|
A-10-10--13-13-13--10-10--13-13-13-|
E--8--8--11-11-11---8--8--11-11-11-|
   primal...        facist alloy...
e----------------------------------|
B----------------------------------|
G--8--9--12-12-12---8--9--12-12-12-|
D-10-10--13-13-13--10-10--13-13-13-|
A-10-10--13-13-13--10-10--13-13-13-|
E--8--8--11-11-11---8--8--11-11-11-|
   hippy's son...     hippy's son...
e----------------------------------|
B----------------------------------|
G--8--9--12-12-12---8--9--12-12-12-|
D-10-10--13-13-13--10-10--13-13-13-|
A-10-10--13-13-13--10-10--13-13-13-|
E--8--8--11-11-11---8--8--11-11-11-|
   hippy's son...     hippy's son...
e----------------------------------|
B----------------------------------|
G--8--9--12-12-12---8--9--12-12-12-|
D-10-10--13-13-13--10-10--13-13-13-|
A-10-10--13-13-13--10-10--13-13-13-|
E--8--8--11-11-11---8--8--11-11-11-|

Carl:
*
e----------------------------------|
B---------8----------------8-------|
G--8--9---8---------8--9---8-------|
D-10-10------------10-10-----------|
A----------------------------------|
E----------------------------------|

e----------------------------------|
B---------8----------------8-------|
G--8--9---8---------8--9---8-------|
D-10-10------------10-10-----------|
A----------------------------------|
E----------------------------------|

e----------------------------------|
B---------8----------------8-------|
G--8--9---8---------8--9---8-------|
D-10-10------------10-10-----------|
A----------------------------------|
E----------------------------------|

e----------------------------------|
B---------8----------------8-------|
G--8--9---8---------8--9---8-------|
D-10-10------------10-10-----------|
A----------------------------------|
E----------------------------------|
Добавлено: 28.10.2013
Другие материалы по этой песне:
  • Аккорды и текст

Страница создана 28.09.2013
http://primanota.ru/dirty-pretty-things/hippys-son-chords.htm
Привет, Гость.
Предлагаем пройти революционный курс по гитаре.
Подарок от PrimaNota.Ru, забирай!