PrimaNota.ru - самый крупный в мире бесплатный архив песенных текстов, аккордов, табулатур и нот


Dirty Pretty Things - Buzzards & Crows - текст песни, таба, бас-таба, видео

Регистрация Запомнить меня
Войти через:  Facebook Google Twitter Vk Yandex Mail.ru

Dirty Pretty Things - Buzzards & Crows - текст песни, таба, бас-таба, видео

Печатать
Просмотров: 100
I think this is the bit that Carl plays.
Not sure really but it sounds good.

With Distortion

Verse

E|-------6-3-5-6-6-5--|
A|-5-5-5---------8-7--|
D|---7-----------8-7--|
G|---7-----------7-6--|
B|---6-----------6-5--|
e|---5-----------6-5--|


Bridge
E|------3-3-------1-1- |-----|    |-5-5-5-5-5-5-5-5-|
A|-3-3--5-5--3-3--3-3- |-3-3-|    |-7-7-7-7-7-7-7-7-|
D|-5-5--5-5--5-5--3-3- |-5-5-|    |-7-7-7-7-7-7-7-7-|
G|-5-5--4-4--5-5--2-2- |-5-5-|    |-6-6-6-6-6-6-6-6-|
B|-5-5--3-3--5-5--1-1- |-5-5-|    |-5-5-5-5-5-5-5-5-|
e|------3-3-------1-1- |-----|    |-5-5-5-5-5-5-5-5-|
                       1st Time         2nd Time

Chorus 1

E|---------6--5-5-5--6-6-6-|
A|---5--3--8--7-7-7--8-8-8-|
D|---7--5--8--7-7-7--8-8-8-|
G|---7--5--7--6-6-6--7-7-7-|
B|---6--5--6--5-5-5--6-6-6-|
e|---5--6--5--5-5-6--6-6-6-|

Chorus 2

E|-1-1-1--5-5-5--|
A|-3-3-3--7-7-7--|
D|-3-3-3--7-7-7--|
G|-2-2-2--6-6-6--|
B|-1-1-1--5-5-5--|
e|-1-1-1--5-5-5--|

Without Distortion

Middle

E|-6-----6-----6--1-----5--|
A|-8--5--8--5--8--3--5--7--|
D|-8--7--8--7--8--3--7--7--|
G|-7--7--7--7--7--2--7--6--|   <- Strum these chords
B|-6--6--6--6--6--1--6--5--|
e|-6--5--6--5--6--1--5--5--|

Song Order

Verse x7
Bridge
Verse x5
Bridge
Chorus 1 x3
Chorus 2
Verse x6
Bridge
Verse x2
Bridge
Chorus 1 x3
Chorus 2
Middle
Chorus 1 x3
Chorus 2
Chorus 1 x3
Chorus 2
Verse x5
Bridge
Добавлено: 21.10.2013
Другие материалы по этой песне:
  • Аккорды и текст

Страница создана 21.10.2013
http://primanota.ru/dirty-pretty-things/buzzards-and-crows-chords.htm
Привет, Гость.
Предлагаем пройти революционный курс по гитаре.
Подарок от PrimaNota.Ru, забирай!