PrimaNota.ru - самый крупный в мире бесплатный архив песенных текстов, аккордов, табулатур и нот


Dirty Pretty Things - Bang Bang Your Dead - таба, видео

Регистрация Запомнить меня
Войти через:  Facebook Google Twitter Vk Yandex Mail.ru

Dirty Pretty Things - Bang Bang Your Dead - таба, видео

Печатать
Просмотров: 142
hey y'all i suck at tabbin but i think i got these down except for the trumpet  part lol.

Horn part:
e-------8--8-9-9-11------------------------------------------|
B----10--10----------10-8-6---6-9-9-9-8-6-9-8-6---10-8-10----|
G---------------------------7-------------------5------------|
D------------------------------------------------------------|
A------------------------------------------------------------|
E------------------------------------------------------------|

Intro guitars:
Anthony plays:
e-5-5-5-5-5-5-5-5-5-5-5-5-5-5-5-5-5-5-5-3-3-3-3-3-3-|
B-6-6-6-6-6-6-6-6-6-6-6-6-6-6-6-6-6-6-6-5-5-5-5-5-5-|
G-7-7-7-7-7-7-7-7-7-7-7-7-7-7-7-7-7-7-7-5-5-5-5-5-5-|
D-7-7-7-7-7-7-7-7-7-7-7-7-7-7-7-7-7-7-7-5-5-5-5-5-5-|
A-5-5-5-5-5-5-5-5-5-5-5-5-5-5-5-5-5-5-5-3-3-3-3-3-3-|
E---------------------------------------------------|

The he plays this whilst Carl plays his part up ahead

e-1-1-1-1-1-1-5-5-5-5-5-5-5-5-5-5-5-5-5-5-5-5-5-6-6-6-6-6-6-6-6-6-6-6-6-|
B-1-1-1-1-1-1-5-5-5-5-5-5-6-6-6-6-6-6-6-6-6-6-6-6-6-6-6-6-6-6-6-6-6-6-6-|
G-2-2-2-2-2-2-6-6-6-6-6-6-7-7-7-7-7-7-7-7-7-7-7-7-7-7-7-7-7-6-6-6-6-6-6-|
D-3-3-3-3-3-3-7-7-7-7-7-7-7-7-7-7-7-7-7-7-7-7-7-8-8-8-8-8-8-8-8-8-8-8-8-|
A-3-3-3-3-3-3-7-7-7-7-7-7-5-5-5-5-5-5-5-5-5-5-5-8-8-8-8-8-8-8-8-8-8-8-8-|
E-1-1-1-1-1-1-5-5-5-5-5-5-----------------------6-6-6-6-6-6-6-6-6-6-6-6-|

Carl plays this great riff:

e--------8-------8------5-----------------------------------------------|
B-/10-10---10-10---10-6---6-8-6----6-------6----6----6--8(B)(R)B 6h8p6--|
G-------------------------------5h7---7-5h7--5h7--5h7-------------------|
D-----------------------------------------------------------------------|
A-----------------------------------------------------------------------|
E-----------------------------------------------------------------------|

e------------------------------------------------------13-13-13-12-12-12-|
B-8(B)(R)6--8(B)(R)6--8(B)(R)6--8(B)(R)6---------------------------------|
G---------7---------7---------7---------7--------------------------------|
D------------------------------------------------------------------------|
A------------------------------------------------------------------------|
E------------------------------------------------------------------------|
                   Hold Bend           Verses have started by here
e-10-10-10-8-8-8-6--------------------------------------------------------|
B------------------8(B)-8-8-8(R)-6-------5--------------------------------|
G-------------------------------------------------------------------------|
D-------------------------------------------------------------------------|
A-------------------------------------------------------------------------|
E-------------------------------------------------------------------------|

Verse 1:
Anthony:
e-1-1-1-1-1-5-5-5-5-5-5-5-5-5-5-5-5-5-5-5--6-6-6-6---6-6-6-6-1-1-1-1-1---|
B-1-1-1-1-1-5-5-5-5-5-6-6-6-6-6-6-6-6-6-6--6-6-6-6---6-6-6-6-1-1-1-1-1---|
G-2-2-2-2-2-6-6-6-6-6-7-7-7-7-7-7-7-7-7-7--7-7-7-7---6-6-6-6-2-2-2-2-2---|
D-3-3-3-3-3-7-7-7-7-7-7-7-7-7-7-7-7-7-7-7--8-8-8-8---8-8-8-8-3-3-3-3-3---|
A-3-3-3-3-3-7-7-7-7-7-5-5-5-5-5-5-5-5-5-5--8-8-8-8---8-8-8-8-3-3-3-3-3---|
E-1-1-1-1-1-5-5-5-5-5----------------------6-6-6-6---6-6-6-6-1-1-1-1-1---|

e-1-1-1-1-1-5-5-5-5-5-5-5-5-5-5-5-5-5-5-5--6------6-|
B-1-1-1-1-1-5-5-5-5-5-6-6-6-6-6-6-6-6-6-6--6------6-|
G-2-2-2-2-2-6-6-6-6-6-7-7-7-7-7-7-7-7-7-7--7------6-|
D-3-3-3-3-3-7-7-7-7-7-7-7-7-7-7-7-7-7-7-7--8------8-|X1
A-3-3-3-3-3-7-7-7-7-7-5-5-5-5-5-5-5-5-5-5--8------8-|
E-1-1-1-1-1-5-5-5-5-5----------------------6------6-|

Carl comes in with this the second time through:
e-x-x-x-x-x-x-1-1-1-1-1-5-5-5-5-5-5-5-5-5-5-5-5-5-5-5--6------6-|
B-x-x-x-x-x-x-1-1-1-1-1-5-5-5-5-5-6-6-6-6-6-6-6-6-6-6--6------6-|
G-x-x-x-x-x-x-2-2-2-2-2-6-6-6-6-6-7-7-7-7-7-7-7-7-7-7--7------6-|
D-x-x-x-x-x-x-3-3-3-3-3-7-7-7-7-7-7-7-7-7-7-7-7-7-7-7--8------8-|
A-x-x-x-x-x-x-3-3-3-3-3-7-7-7-7-7-5-5-5-5-5-5-5-5-5-5--8------8-|
E-x-x-x-x-x-x-1-1-1-1-1-5-5-5-5-5----------------------6------6-|

Pre Chorus:
Anthony & Carl:
e-5-5-5-5-5-5-5-5-5-5-5-5-5-5-5-5-5-5-6-5           -3--3--3--3-|
B-6-6-6-6-6-5-5-5-5-5-6-6-6-6-6-5-5-5-6-5           -5--5--5--5-|
G-7-7-7-7-7-6-6-6-6-6-7-7-7-7-7-6-6-6-7-6  x2 then  -5--5--5--5-|
D-7-7-7-7-7-7-7-7-7-7-7-7-7-7-7-7-7-7-8-7           -5--5--5--5-|
A-5-5-5-5-5-7-7-7-7-7-5-5-5-5-5-7-7-7-8-7           -3--3--3--3-|
E-----------5-5-5-5-5-----------5-5-5-6-5           ------------|

Chorus:
Anthony & Carl
e-1-1-1-1-1-5-5-5-5-5-5-5-5-5-5---6-6-6-5-3-           -1--5--5-5-5-5-|
B-1-1-1-1-1-5-5-5-5-5-6-6-6-6-6---6-6-6-5-3-           -1--5--7-7-7-7-|
G-2-2-2-2-2-6-6-6-6-6-7-7-7-7-7---7-7-7-6-4-           -2--6--7-7-7-7-|
D-3-3-3-3-3-7-7-7-7-7-7-7-7-7-7---8-8-8-7-5-  x2 then  -3--7--7-7-7-7-|
A-3-3-3-3-3-7-7-7-7-7-5-5-5-5-5---8-8-8-7-5-           -3--7--5-5-5-5-|
E-1-1-1-1-1-5-5-5-5-5-------------6-6-6-5-3-           -1--5----------|

Then Anthony plays:
e-5-5-5-3-3-3-|
B-5-5-5-3-3-3-|
G-6-6-6-4-4-4-|
D-7-7-7-5-5-5-|
A-7-7-7-5-5-5-|
E-5-5-5-3-3-3-|

Verse 2:
Anthony:
e-1-1-1-1-1-5-5-5-5-5-5-5-5-5-5-5-5-5-5-5--6-6-6-6---6-6-6-6-1-1-1-1-1---|
B-1-1-1-1-1-5-5-5-5-5-6-6-6-6-6-6-6-6-6-6--6-6-6-6---6-6-6-6-1-1-1-1-1---|
G-2-2-2-2-2-6-6-6-6-6-7-7-7-7-7-7-7-7-7-7--7-7-7-7---6-6-6-6-2-2-2-2-2---|
D-3-3-3-3-3-7-7-7-7-7-7-7-7-7-7-7-7-7-7-7--8-8-8-8---8-8-8-8-3-3-3-3-3---|
A-3-3-3-3-3-7-7-7-7-7-5-5-5-5-5-5-5-5-5-5--8-8-8-8---8-8-8-8-3-3-3-3-3---|
E-1-1-1-1-1-5-5-5-5-5----------------------6-6-6-6---6-6-6-6-1-1-1-1-1---|

e-1-1-1-1-1-5-5-5-5-5-5-5-5-5-5-5-5-5-5-5--6------6-|
B-1-1-1-1-1-5-5-5-5-5-6-6-6-6-6-6-6-6-6-6--6------6-|
G-2-2-2-2-2-6-6-6-6-6-7-7-7-7-7-7-7-7-7-7--7------6-|
D-3-3-3-3-3-7-7-7-7-7-7-7-7-7-7-7-7-7-7-7--8------8-|X1
A-3-3-3-3-3-7-7-7-7-7-5-5-5-5-5-5-5-5-5-5--8------8-|
E-1-1-1-1-1-5-5-5-5-5----------------------6------6-|

Carl comes in with this the second time through:
e-x-x-x-x-x-x-1-1-1-1-1-5-5-5-5-5-5-5-5-5-5-5-5-5-5-5--6------6-|
B-x-x-x-x-x-x-1-1-1-1-1-5-5-5-5-5-6-6-6-6-6-6-6-6-6-6--6------6-|
G-x-x-x-x-x-x-2-2-2-2-2-6-6-6-6-6-7-7-7-7-7-7-7-7-7-7--7------6-|
D-x-x-x-x-x-x-3-3-3-3-3-7-7-7-7-7-7-7-7-7-7-7-7-7-7-7--8------8-|
A-x-x-x-x-x-x-3-3-3-3-3-7-7-7-7-7-5-5-5-5-5-5-5-5-5-5--8------8-|
E-x-x-x-x-x-x-1-1-1-1-1-5-5-5-5-5----------------------6------6-|

Carl plays this bridge part but im not sure what Anthony plays:
e---10--10-10-10-10-10-9-9-9-8-8-8-7-7-7-          -----------|
B----------------------------------------          -----------|
G-7---7----------------------------------          -----------|
D----------------------------------------  x3 then -7-7-7-8-7-|X1
A----------------------------------------          -----------|
E----------------------------------------          -----------|

Anthony plays this twice but Carl plays it once after the riff before this
e--5-5-5-6-5---|
B--5-5-5-6-5---|
G--6-6-6-7-6---|
D--7-7-7-8-7---|X1
A--7-7-7-8-7---|
E--5-5-5-6-5---|

Chorus:
Anthony & Carl
e-1-1-1-1-1-5-5-5-5-5-5-5-5-5-5---6-6-6-5-3-           -1--5--5-5-5-5-|
B-1-1-1-1-1-5-5-5-5-5-6-6-6-6-6---6-6-6-5-3-           -1--5--7-7-7-7-|
G-2-2-2-2-2-6-6-6-6-6-7-7-7-7-7---7-7-7-6-4-           -2--6--7-7-7-7-|
D-3-3-3-3-3-7-7-7-7-7-7-7-7-7-7---8-8-8-7-5-  x2 then  -3--7--7-7-7-7-|
A-3-3-3-3-3-7-7-7-7-7-5-5-5-5-5---8-8-8-7-5-           -3--7--5-5-5-5-|
E-1-1-1-1-1-5-5-5-5-5-------------6-6-6-5-3-           -1--5----------|

Anthony plays this
e-1-1-1-1-1-1-5-5-5-5-5-5-5-5-5-5-5-5-5-5-5-5-5-6-6-6-6-6-6-6-6-6-6-6-6-|
B-1-1-1-1-1-1-5-5-5-5-5-5-6-6-6-6-6-6-6-6-6-6-6-6-6-6-6-6-6-6-6-6-6-6-6-|
G-2-2-2-2-2-2-6-6-6-6-6-6-7-7-7-7-7-7-7-7-7-7-7-7-7-7-7-7-7-6-6-6-6-6-6-|
D-3-3-3-3-3-3-7-7-7-7-7-7-7-7-7-7-7-7-7-7-7-7-7-8-8-8-8-8-8-8-8-8-8-8-8-|
A-3-3-3-3-3-3-7-7-7-7-7-7-5-5-5-5-5-5-5-5-5-5-5-8-8-8-8-8-8-8-8-8-8-8-8-|
E-1-1-1-1-1-1-5-5-5-5-5-5-----------------------6-6-6-6-6-6-6-6-6-6-6-6-|

Carl plays this

e--------8-------8------5-----------------------------------------------|
B-/10-10---10-10---10-6---6-8-6----6-8-8-8-8-8-8-8-8-8-6-6-6-8-9-10-----|
G-------------------------------5h7-------------------------------------|
D-----------------------------------------------------------------------|
A-----------------------------------------------------------------------|
E-----------------------------------------------------------------------|
                                                  Hold Bend
e------------13-13-13-12-12-12-10-10-10-8-8-8-6--------------------------|
B-9-8-6-8-10------------------------------------8(B)-8-8-8(R)-6/12\0-----|
G------------------------------------------------------------------------|
D------------------------------------------------------------------------|
A------------------------------------------------------------------------|
E------------------------------------------------------------------------|

Pre-Chorus:
Anthony & Carl:
e-5-5-5-5-5-5-5-5-5-5-5-5-5-5-5-5-5-5-6-5           -3--3--3--3-|
B-6-6-6-6-6-5-5-5-5-5-6-6-6-6-6-5-5-5-6-5           -5--5--5--5-|
G-7-7-7-7-7-6-6-6-6-6-7-7-7-7-7-6-6-6-7-6  x2 then  -5--5--5--5-|
D-7-7-7-7-7-7-7-7-7-7-7-7-7-7-7-7-7-7-8-7           -5--5--5--5-|
A-5-5-5-5-5-7-7-7-7-7-5-5-5-5-5-7-7-7-8-7           -3--3--3--3-|
E-----------5-5-5-5-5-----------5-5-5-6-5           ------------|

Chorus:
Anthony & Carl
e-1-1-1-1-1-5-5-5-5-5-5-5-5-5-5---6-6-6-5-3-           -1--5--5--|
B-1-1-1-1-1-5-5-5-5-5-6-6-6-6-6---6-6-6-5-3-           -1--5--7--|
G-2-2-2-2-2-6-6-6-6-6-7-7-7-7-7---7-7-7-6-4-           -2--6--7--|
D-3-3-3-3-3-7-7-7-7-7-7-7-7-7-7---8-8-8-7-5-  x2 then  -3--7--7--| x2
A-3-3-3-3-3-7-7-7-7-7-5-5-5-5-5---8-8-8-7-5-           -3--7--5--|
E-1-1-1-1-1-5-5-5-5-5-------------6-6-6-5-3-           -1--5-----|

e-6-1-
B-6-1-
G-7-2-
D-8-3-
A-8-3-
E-6-1-
Добавлено: 17.08.2013
Другие материалы по этой песне:
  • Аккорды и текст

Страница создана 17.08.2013
http://primanota.ru/dirty-pretty-things/bang-bang-your-dead-chords.htm
Привет, Гость.
Предлагаем пройти революционный курс по гитаре.
Подарок от PrimaNota.Ru, забирай!