PrimaNota.ru - самый крупный в мире бесплатный архив песенных текстов, аккордов, табулатур и нот


Dirty Heads - Radio - таба, видео

Регистрация Запомнить меня
Войти через:  Facebook Google Twitter Vk Yandex Mail.ru

Dirty Heads - Radio - таба, видео

Печатать
Просмотров: 82
Уроки эстрадного вокала в Санкт-Петербурге
-------------------------------------------------------------------------------
                             Radio - Dirty Heads
-------------------------------------------------------------------------------
Tabbed by: Tyler Bowles
E-mail: tibblesnbits513@yahoo.com

Tuning: standard
       F         Am
e|--8----1-------5----|
B|--10---1-------5----|
G|--10---2-------5----|
D|--10---3-------7----|
A|--8----3-------7----|
E|--x----1-------5----|

     Gm    Am
e|---3-----5---|
B|---3-----5---|
G|---3-----5---|
D|---5-----7---|
A|---5-----7---|
E|---3-----5---|

  Thats pretty much all there is to the song, I know I could have added lyrics but I
  Didn't have a lot of time. The high F chord is actually what he Duddy B plays, I
  Wrote both because i find that formation that high up to be a pain but thats all it
  is, a 3 chord banger





************************************

| /   slide up
| \   slide down
| h   hammer-on
| p   pull-off
| ~   vibrato
| +   harmonic
| x   Mute note
| b   Bend
| pb  Pre-bend
| br  Bend release
| pbr Pre-bend release
| brb Bend release bend

************************************
Добавлено: 20.09.2015
Другие материалы по этой песне:
  • Аккорды и текст

Страница создана 20.09.2015
http://primanota.ru/dirty-heads/radio-chords.htm
Привет, Гость.
Предлагаем пройти революционный курс по гитаре.
Подарок от PrimaNota.Ru, забирай!