PrimaNota.ru - самый крупный в мире бесплатный архив песенных текстов, аккордов, табулатур и нот


Dirty Heads - Cabin By The Sea - таба, видео

Регистрация Запомнить меня
Войти через:  Facebook Google Twitter Vk Yandex Mail.ru

Dirty Heads - Cabin By The Sea - таба, видео

Печатать
Просмотров: 80
-----------------------------------------------------------------------------
                             CABIN BY THE SEA - The Dirty Heads
-----------------------------------------------------------------------------
Tabbed by: Eric Roetzer
E-mail: gumble2_gumble@yahoo.com

First song I tried to tab by ear. Prolly not 100%, but I think we can figure it 
out from here. I think it sounds pretty good.

Tuning: Standard EADGBe

Chords:

e|--x---x---x----x----x----|
B|--x---5---x----x----x----|
G|--8---6---9----x----x----|
D|--9---6---9----11---9----|
A|--9---4---7----11---9----|
E|--7---x---x----9----7----|
    B  C#m  E5  C#5   B5

e|---x--x--x--x--x--x--x--x--|--x--x--x--x-------------|
B|---x--x--x--x--x--x--x--x--|--x--x--x--x-------------|
G|---8--8--8--8--8--8--8--8--|--8--8--8--8-------------|
D|---9--9--9--9--9--9--9--9--|--9--9--9--9--9/11--9/11-|
A|---9--9--9--9--9--9--9--9--|--9--9--9--9--9/11--9/11-|
E|---7--7--7--7--7--7--7--7--|--7--7--7--7-------------|

         B        B         B          B
Well come with me to a place by the sea
           B           B              B        B
If the ship breaks down you can always find me
         C#m        C#m            C#m        C#m
And Dirty J chillin' underneath the shady tree 
        C#m               C#m               C#m        C#m
Our fans are always welcome with our friends and family

               B             B            B         B
And if you wish you can stay, as long as you please
            B       B               B            B
Just lend a helpin' hand up in our cabin by the sea
           C#m            C#m             C#m            C#m
Where everyday is beautiful the sun, the sand, the breeze
         C#m           C#m         C#m         C#m
And everybody lives together here in harmony

--------
[CHORUS]
--------
             E5
And we'll sing
                        B
Just as loud as we please
             E5
And we will be
               B
Forever so free
               C#5
So come follow me
               B5
Cabin by the sea


e|--------------|
B|--------------|
G|--------------|
D|--9/11--9/11--|
A|--9/11--9/11--|
E|--------------|

       B        B                B         B
Picture you and me and the cabin by the sea
         B         B                   B              B
You paint the fence, I'll hang the tire from the tree
               C#m          C#m         C#m            C#m
Our friends are all around and the storm was a no-show
           C#m          C#m           C#m          C#m
You say we look better in a black and white photo

      B         B                B         B
Picture you and me and the cabin by the sea
        B               B             B           B
Sit up on the porch and we can burn a couple trees
            C#m          C#m          C#m             C#m
Our friends are all around and the storm was a no-show
            C#m        C#m            C#m         C#m  B
You say we look better in a black and white photo

B      B          B          B      B       
 But what the photograph don't show
      B        B        B      B  C#m
Is where we're headed tomorrow
      C#m             C#m
And when we have to go
            C#m         C#m            C#m          C#m
We'll always be together in a black and white photo


-----------------------


       B                 B             B           B
Gather up some rocks and make a circle in the sand
              B                 B            B              B
We'll fill it up with wood and build a fire with our hands
          C#m         C#m            C#m           C#m
The smoke starts to rise, the moon starts to shine
           C#m             C#m            C#m           C#m
You bring the weed we'll bring the whiskey and the wine


                        B            B
And we can pass it all around
            B        B
Until its all gone
              B              B
Put a message in the bottle
         B          B  
Put the cork back on
             C#m        C#m
And throw it in the sea  
            C#m           C#m
The message it will read
                 C#m         C#m               C#m           C#m
If you find this don't send help, send another bottle please


[CHORUS]
                 B
And when the sun goes down

We can start a fire to sit around
         B
When the sun goes down

We can start a fire, start a fire

         B
When the sun goes down

We can start a fire to drink around
         B
When the sun goes down

We can start a fire, start a fire

         B
When the sun goes down

We can start a fire to sing around
         B
When the sun goes down

We can start a fire, start a fire


Outro: You can do what you wish here

e|--x--x--x----x--x-x--x-----x-x-----------------|
B|--x--x--x----x--x-x--x-----x-x-----------------|
G|--8--9--x----x--x-x--x-----8-8--8p6------------|
D|--9--9--11---11-x-x--11----9-9------9-6-9------|
A|--9--7--11---11-x-x--11----9-9-----------------|
E|--7--x--9----9--x-x--9-----7-7-----------------|

e|--x--x--x----x--x-x--x-----x-x-------------------------------|
B|--x--x--x----x--x-x--x-----x-x-------------------------------|
G|--8--9--x----x--x-x--x-----8-8-------------------------------|
D|--9--9--11---11-x-x--11----9-9-------9---------9----9h11--9--|
A|--9--7--11---11-x-x--11----9-9--9h11-----9h11----11----------|
E|--7--x--9----9--x-x--9-----7-7-------------------------------|



************************************

| /   slide up
| \   slide down
| h   hammer-on
| p   pull-off
| ~   vibrato
| +   harmonic
| x   Mute note
| b   Bend
| pb  Pre-bend
| br  Bend release
| pbr Pre-bend release
| brb Bend release bend

************************************

Добавлено: 20.08.2013
Другие материалы по этой песне:
  • Аккорды и текст

Страница создана 20.08.2013
http://primanota.ru/dirty-heads/cabin-by-the-sea-chords.htm
Привет, Гость.
Предлагаем пройти революционный курс по гитаре.
Подарок от PrimaNota.Ru, забирай!