PrimaNota.ru - самый крупный в мире бесплатный архив песенных текстов, аккордов, табулатур и нот


Dirty Americans - Car Crash - текст песни, таба, видео

Регистрация Запомнить меня
Войти через:  Facebook Google Twitter Vk Yandex Mail.ru

Dirty Americans - Car Crash - текст песни, таба, видео

Печатать
Просмотров: 112
-------------------------------------------------------------------------------
                                        Dirty Americans-Car Crash
-------------------------------------------------------------------------------
Tabbed by: Jaytee805
E-mail: jaytee805@gmail.com

Tuning: Standard

Alright, so the intro starts like this:
e|---------------------------------------------------------------------------|
B|---------------------------------------------------------------------------|
G|---------------------------------------------------------------------------|
D|---------------------------------------------------------------------------|
A|----6--6----------6--6------------6--6----------6--6-----------------------|
E|---/--8--8-6-7-8----8--8-8-6-7-8----8--8-6-7-8----8--8-8-6-7-8-------------|

This part is riffed on a few times, then the last part before the vocals begin goes like this:
e|---------------------------------------------------------------------------|
B|---------------------------------------------------------------------------|
G|---------------------------------------------------------------------------|
D|---------------------------------------------------------------------------|
A|---6--6-----------6-8^9^8-8^9^8--------------------------------------------|
E|-----8--8-6-7-8-8----------------------------------------------------------|

The verse follows the same pattern as the intro. However, the fourth time is different 
from the rest:
e|---------------------------------------------------------------------------|
B|---------------------------------------------------------------------------|
G|---------------------------------------------------------------------------|
D|---------------------------------------------------------------------------|
A|---6--6---------6----------------------------------------------------------|
E|-----8--8-6-7-8---6--------------------------------------------------------|

Then it hits the chorus, which is as follows:
e|---------------------------------------------------------------------------|
B|---------------------------------------------------------------------------|
G|---------------------------------------------------------------------------|
D|---------------------------------------------------------------------------|
A|---6--6---------6---6------------1--1--------1--1--------------------------|
E|-----8--8-6-7-8---8---8-8-6-7-8---3--3-1-2-3--3--3-3-1-2-3-----------------|

The next verse and chorus are exactly the same as the previous ones. Then it hits the 
little bridge chords part, and they are:
e|---8-----5-----7-----8---8-------------------------------------------------|
B|---8-----5-----7-----8---8-------------------------------------------------|
G|---9-----5-----7-----9---8-------------------------------------------------|
D|---10----7-----9-----10--10------------------------------------------------|
A|---10----7-----9-----10--10------------------------------------------------|
E|---8-----5-----7-----8---8-------------------------------------------------|

Next, we have the solo:
e|----------------------------------8-9-8-9-8-9-8-6-------9------------------|
B|---------------------------------------------------9^11---9^11^9----9-11---|
G|--------------6-+8^10^8^10^8^10---------------------------------10---------|
D|----------6-8--------------------------------------------------------------|
A|---6-7--8------------------------------------------------------------------|
E|---------------------------------------------------------------------------|

e|---------------------------------------------------------------------------|
B|--------7-8-9-9-11-11-11p9---9-11h12p11-9-11-12-13-14-13-12-------11-------|
G|---9^10--------------------10--------------------------------13^15---13^15-|
D|---------------------------------------------------------------------------|
A|---------------------------------------------------------------------------|
E|---------------------------------------------------------------------------|

e|---13----------13-15-13----------13----------------------------------------|
B|------16p13-------------16-16-16---16-13----13-----------------------------|
G|------------15----------------------------15----15-----------------12~-----|
D|----------------------------------------------------13-11------------------|
A|----------------------------------------------------------13-11-13---------|
E|---------------------------------------------------------------------------|

Then it hits another verse, played the same as the first, and the chorus hits again, but 
is played twice as long. The ending chord is held as a C.

************************************
KEY TO SUCCESS:

| /   slide up
| \   slide down
| h   hammer-on
| p   pull-off
| ~   vibrato
| +   harmonic
| x   Mute note
| ^   Bend
************************************

E-mail me^if you got any questions or tabbing suggestions/requests! All styles of music 
are cool man!
Добавлено: 26.08.2013
Другие материалы по этой песне:
  • Аккорды и текст

Страница создана 22.04.2012
http://primanota.ru/dirty-americans/car-crash-chords.htm
Привет, Гость.
Предлагаем пройти революционный курс по гитаре.
Подарок от PrimaNota.Ru, забирай!