PrimaNota.ru - самый крупный в мире бесплатный архив песенных текстов, аккордов, табулатур и нот


Dirt - Public Execution - таба, видео

Регистрация Запомнить меня
Войти через:  Facebook Google Twitter Vk Yandex Mail.ru

Dirt - Public Execution - таба, видео

Печатать
Просмотров: 91
Intro:

e|----------------------------------------------------|
b|----------------------------------------------------|
g|----------------------------------------------------|
d|10-10-10-10-9-9-9-9-12-12-12-7-7-7-7----------------|(repeat X 6)
a|10-10-10-10-9-9-9-9-12-12-12-7-7-7-7----------------|
e|8--8--8--8--7-7-7-7-10-10-10-5-5-5-5----------------|

Verse/end:

e|----------------------------------------------------|
b|----------------------------------------------------|
g|----------------------------------------------------|
d|10-10-9-9-12-12-7-7---------------------------------|
a|10-10-9-9-12-12-7-7---------------------------------|(repeat X 15)
e|8--8--7-7-10-10-5-5---------------------------------|

Lyrics:


back in 1984, stretch his fucking neck and he'll die. what for? crimes against the state
and crimes against the law, talking out in public, that's what for. public execution
number 131, stretch his fucking neck, an excuse for fun, tell you that its legal, but 
how can that be, taking someone's life doesn't seem right to me. say they got the reasons say
they got the power, they don't give a damn it ain't their last hour. public execution 
back in 1984?


http://www.youtube.com/watch?v=BuJV7IVQpa8
Добавлено: 10.07.2013
Другие материалы по этой песне:
  • Аккорды и текст

Страница создана 10.07.2013
http://primanota.ru/dirt/public-execution-chords.htm
Привет, Гость.
Предлагаем пройти революционный курс по гитаре.
Подарок от PrimaNota.Ru, забирай!