PrimaNota.ru - самый крупный в мире бесплатный архив песенных текстов, аккордов, табулатур и нот


Dirge Within - Confession - таба, видео

Регистрация Запомнить меня
Войти через:  Facebook Google Twitter Vk Yandex Mail.ru

Dirge Within - Confession - таба, видео

Печатать
Просмотров: 67
-------------------------------------------------------------------------------
                             Confessions - Dirge Within
-------------------------------------------------------------------------------
Tabbed by: PPelley
E-mail: ppelley0115@gmail.com

Tuning: A# F A# D# G# C

Disclaimer: This is my first tab so there are mistakes and I apologize. Also please note
that there are two guitar parts (sometimes 3 throughout the recording) and I have
not tabbed all of them, just the main riffs needed to play the song. Enjoy!
___________________________________________________________

SONG STRUCTURE:

Chorus riff (Clean)x2
Chorus x2
Riff 2 x1
Verse  x4
Post Verse x1
Chorus x2
Post Chorus x1
Verse  x4
Post Verse  x1
Chorus x2
Post Chorus x1
Bridge riff 1 x4
Bridge riff 2 x4
Bridge riff 3 x4
Bridge riff 2 x4
Post Chorus   x1
Chorus        x7
Post Chorus   x1
Riff 2        x1


___________________________________________________________
Chorus Riff

e|-----------------------------------------------------------------------------|
B|-----------------------------------------------------------------------------|
G|-----------------------------------------------------------------------------|
D|---7--7-----7---------7 h (8)-8-----------7--7-----7---------7 h (8)-8-------|
A|-----------------------------------------------------------------------------|
E|-8--------8------8-8--------------------5--------5------5-5------------------|

e|---------------------------------------------------------|
B|---------------------------------------------------------|
G|---------------------------------------------------------|
D|----7--7---7----------7 h (8)-8--------------------------|  x2
A|---------------------------------------------------------|
E|-0--------0------0-0-------------------------------------|
_____________________________________________________________

Riff 2

e|-----------------------------------------------------------------------------|
B|-----------------------------------------------------------------------------|
G|-----------------------------------------------------------------------------|
D|-------------3--------------------------5------------------------------------|
A|------3-5-6---6-5 h 6 p 5-------3-5-6---6-5 h 6 p 5--------------------------|
E|-000------------------------000----------------------------------------------|

e|-----------------------------------------------------------------------------|
B|-----------------------------------------------------------------------------|
G|-----------------------------------------------------------------------------|
D|-------------3---------------------------x-6--x-5----------------------------|
A|------3-5-6---6-5 h 6 p 5-------3-5-6--x-6--x-5------------------------------|
E|-000------------------------000---------x-6--x-5-----------------------------|
_____________________________________________________________

Verse Riff

e|-----------------------------------------------------------------------------|
B|-----------------------------------------------------------------------------|
G|-----------------------------------------------------------------------------|
D|-----------------------------------------------------------------------------|
A|-------------------------------5------------------------------5-6------------|
E|--6 p 5-3 h 5 p 3--00--00--0------6 p 5-3 h 5 p 3--00--00--------------------|

_____________________________________________________________

Post Verse

e|-----------------------------------------------------------------------------|
B|-----------------------------------------------------------------------------|
G|-----------------------------------------------------------------------------|
D|-----------------------------------------------------------------------------|
A|------------------------------------------------------5-6-8------------------|
E|--88888888 --8-7--55555555--5-7--00000000------------------------------------|

e|-----------------------------------------------------------------------------|
B|-----------------------------------------------------------------------------|
G|-----------------------------------------------------------------------------|
D|-----------------------------------------------------------------------------|
A|---------------6-8-6-5-------------------------------------------------------|
E|--00000000-------------------------------------------------------------------|
_______________________________________________________________

Post Chorus rhythm

e|----------------------------------------------------------------------------------|
B|----------------------------------------------------------------------------------|
G|----------------------------------------------------------------------------------|
D|- 8----- 8-7----5------7----------------------------------------------------------|
A|- 8------8-7----5------7----------------------------------------------------------|
E|--8------8-7----5------7----------------------------------------------------------|
________________________________________________________________

Bridge

(Pre solo)
Riff 1
e|-----------------------------------------------------------------------------|
B|-----------------------------------------------------------------------------|
G|-----------------------------------------------------------------------------|
D|-----------------------------------------------------------------------------|
A|-----------------------------------------------------------------------------|
E|---00000000 (Tremolo picking)------------------------------------------------|

(During Solo)
Riff 2

e|-----------------------------------------------------------------------------|
B|-----------------------------------------------------------------------------|
G|-----------------------------------------------------------------------------|
D|-------------3--------------------------5------------------------------------|
A|------3-5-6---6-5 h 6 p 5-------3-5-6---6-5 h 6 p 5--------------------------|
E|-000------------------------000----------------------------------------------|

(Post solo)
Riff 3

e|-----------------------------------------------------------------------------|
B|-----------------------------------------------------------------------------|
G|-----------------------------------------------------------------------------|
D|-------5---------5-------5---------------------------------------------------|
A|---------6-5-------6-5-----6-4-----------------------------------------------|
E|---00------------------------------------------------------------------------|



************************************

| /   slide up
| \   slide down
| h   hammer-on
| p   pull-off
| ~   vibrato
| +   harmonic
| x   Mute note
| b   Bend
| pb  Pre-bend
| br  Bend release
| pbr Pre-bend release
| brb Bend release bend
Добавлено: 07.10.2013
Другие материалы по этой песне:
  • Аккорды и текст

Страница создана 07.10.2013
http://primanota.ru/dirge-within/confession-chords.htm
Привет, Гость.
Предлагаем пройти революционный курс по гитаре.
Подарок от PrimaNota.Ru, забирай!