PrimaNota.ru - самый крупный в мире бесплатный архив песенных текстов, аккордов, табулатур и нот


Director - Can You Take It - таба, видео

Регистрация Запомнить меня
Войти через:  Facebook Google Twitter Vk Yandex Mail.ru

Director - Can You Take It - таба, видео

Печатать
Просмотров: 110
Director - Can You Take It
Guitar tab by Ruairí Tobin

-verse 1-
e|-------------------------------|
B|-------------------------------|
G|-------------------------------|
D|-------------------------------|
A|-7-7---7-7---7---7---7-7-7-7---|
E|-------------------------------|

Can you take it, can you take it all in, does it not look right does it not fit in?

e|-------7-8-8-------------------|
B|-------------------------------|
G|--9-9---------9-10-10----------|
D|-------------------------------|
A|-------------------------------|
E|-------------------------------|

That's where I find myself today

e|-------7-8-8-------------------|
B|-------------------------------|
G|--9-9---------9-10-10----------|
D|-------------------------------|
A|-------------------------------|
E|-------------------------------|

Afraid of what I'll throw away

-Bridge-

e|--------------------------------|
B|--------------------------------|
G|--55555--99999--1212121212--17~-| Note: these are 12's
D|--------------------------------|
A|--------------------------------|
E|--------------------------------|

-Chorus-
(Not too sure about the lyrics)

e|------------------------|
B|------------------------|
G|--17~--16~--17~--17~----|
D|------------------------|
A|------------------------|
E|------------------------|

Don't drink a beer, don't stay in bed.
You gotta help yourself, you gotta help yourself

e|--------------------------|
B|--------------------------|
G|--17------16------17------|
D|--x---x8--x---x8--x---x16-|
A|--15------14------15------|
E|--------------------------|

You're feeling time is running out.
You gotta help yourself, you gotta help yourself

-verse 2-

same as verse 1

-bridge-

same as first bridge

-chorus-

same as first chorus

-instrumental-

e|--------------------------------------------|--------------------------------------------|
B|--------------------------------------------|--------------------------------------------|
G|------17---------17---------17----------17--|------16---------16---------16----------16--|
D|--------------------------------------------|--------------------------------------------|
A|--15------15-15-----15--15------15-15-------|--14------14-14-----14--14------14-14-------|
E|--------------------------------------------|--------------------------------------------|

e|--------------------------------------------|--------------------------------------------|
B|--------------------------------------------|--------------------------------------------|
G|------17---------17---------17----------17--|------13---------13---------13----------13--|
D|--------------------------------------------|--------------------------------------------|
A|--15------15-15-----15--15------15-15-------|--11------11-11-----11--11------11-11-------|
E|--------------------------------------------|--------------------------------------------|

e|--------------------------------------------|--------------------------------------------|
B|--------------------------------------------|--------------------------------------------|
G|------14---------14---------14----------14--|------14---------14---------14----------14--|
D|--------------------------------------------|--------------------------------------------|
A|--12------12-12-----12--12------12-12-------|--12------12-12-----12--12------12-12-------|
E|--------------------------------------------|--------------------------------------------|


e|--------------------------------------------|--------------------------------------------|
B|--------------------------------------------|--------------------------------------------|
G|------14---------14---------14----------14--|------13---------13---------13----------13--|
D|--------------------------------------------|--------------------------------------------|
A|--12------12-12-----12--12------12-12-------|--11------11-11-----11--11------11-11-------|
E|--------------------------------------------|--------------------------------------------|

-pre-chorus-
(play twice)

e|--------------------------------------------|--------------------------------------------|
B|--------------------------------------------|--------------------------------------------|
G|------17---------17---------17----------17--|------16---------16---------16----------16--|
D|--------------------------------------------|--------------------------------------------|
A|--15------15-15-----15--15------15-15-------|--14------14-14-----14--14------14-14-------|
E|--------------------------------------------|--------------------------------------------|
                                                                                             
e|--------------------------------------------|--------------------------------------------|
B|--------------------------------------------|--------------------------------------------|
G|------14---------14---------14----------14--|------13---------13---------13----------13--|
D|--------------------------------------------|--------------------------------------------|
A|--12------12-12-----12--12------12-12-------|--11------11-11-----11--11------11-11-------|
E|--------------------------------------------|--------------------------------------------|

Because of what's projected, down across the years
I feel as expected, but it's not too late, it's not as bad, as bad

repeat chorus until end
 
finish on 
e|------|
B|------|
G|--17--|
D|--x---|
A|--15--|
E|------|

Добавлено: 17.07.2012
Другие материалы по этой песне:
  • Аккорды и текст

Страница создана 17.07.2012
http://primanota.ru/director/can-you-take-it-chords.htm
Привет, Гость.
Предлагаем пройти революционный курс по гитаре.
Подарок от PrimaNota.Ru, забирай!