PrimaNota.ru - самый крупный в мире бесплатный архив песенных текстов, аккордов, табулатур и нот


Dire Straits - What It Is - таба, видео

Регистрация Запомнить меня
Войти через:  Facebook Google Twitter Vk Yandex Mail.ru

Dire Straits - What It Is - таба, видео

Печатать
Просмотров: 280
-------------------------------------------------------------------------------
                             What it is – Dire Straits
-------------------------------------------------------------------------------
Tabbed by: Guitar_man_20
Email: 09gruweca@mail.lrsd.net

Tuning: standard e a d g b e

e|----------------------2----------------------------------------2-2-4-2-----|
B|--------------2-----2---5h2----------5-5b-5b-5-5-3-2-5-3-2-5-0-------------|
G|--------2---2---2h4---------4h2-2------------------------------------------|
D|------2---4----------------------------------------------------------------|
A|-2h4-----------------------------------------------------------------------|
E|---------------------------------------------------------------------------|

e|---------------------------------------------------------------------------|
B|-2-5-5b-5-2-------------5-----5--------------------------------------------|
G|------------2-----1-2-4-6-4-2-4-2-1----------------------------------------|
D|--------------4-4----------------------------------------------------------|
A|---------------------------------------------------------------------------|
E|---------------------------------------------------------------------------|
Добавлено: 05.06.2012
Другие материалы по этой песне:

Страница создана 07.05.2012
http://primanota.ru/dire-straits/what-it-is-chords.htm
Привет, Гость.
Предлагаем пройти революционный курс по гитаре.
Подарок от PrimaNota.Ru, забирай!