PrimaNota.ru - самый крупный в мире бесплатный архив песенных текстов, аккордов, табулатур и нот


Dire Straits - Sultans Of Swing Live - таба, бас-таба, видео

Регистрация Запомнить меня
Войти через:  Facebook Google Twitter Vk Yandex Mail.ru

Dire Straits - Sultans Of Swing Live - таба, бас-таба, видео

Печатать
Просмотров: 504
Sultans of Swing live at Albert Hall by dIRE sTRAITS


Tabbed by: Kritik6

This is the second solo in Sultans of Swing live at Albert Hall from 4:55 to 6:50.

I tabbed this solo from a cover on the original solo. It was REALLY close to the 
original solo by Mark Knopfler.
It was easier as well as I could see his fingering on the guitar and it was only the 
guitar playing. I think I managed to tab it pretty close.
This is my first tab so there mgiht be a few mistakes. Please leave a comment.

                                            x3
e|------------------------------|-------------------------|--------------------|
B|-13---------------------------|-11p10----10-13p10----10-|-11p10----10-13b15--|
G|-12b14-12-12v-12v-12v-12v-12v-|-------12----------12----|-------12-----------|
D|------------------------------|-------------------------|--------------------|
A|------------------------------|-------------------------|--------------------|
E|------------------------------|-------------------------|--------------------|


e|-10-------------------------------------------------|
B|----13p10-------------------------------------------|
G|----------12p10-13p12p10----12----10v--12p10----10v-|
D|-------------------------12----12------------12-----|
A|----------------------------------------------------|
E|----------------------------------------------------|


e|-------------------------------|------------------------|---------------------------|
B|--------10b12r10p8------8v--8\-|-6p5-5--11--------------|-----7--7----7-7-7--7-7--7-|
G|------9------------10p9--------|-5---5--10b12-10-10--7v-|-(7)-10-10\9-7-9-10-9-7--7-|
D|-10p8--------------------------|-----7------------------|---------------------------|
A|-------------------------------|------------------------|---------------------------|
E|-------------------------------|------------------------|---------------------------|


e|--------------------------------------------------------------------|
B|----------------------8-10-9p8----8-10b12r10p8----8---------8-------|
G|----7---7h9h10-7h9h10----------10--------------10---10-9h10---------|
D|------7-------------------------------------------------------10v-\-|
A|-/7-----------------------------------------------------------------|
E|--------------------------------------------------------------------|


e|-------------------------------------------------------------|
B|-13--12--11--10--8--6--5--8--6--5--3--6--5--3--1-------------|
G|--------------------------------------------------2--0----7v-|
D|--------------------------------------------------------3/5--|
A|-------------------------------------------------------------|
E|-------------------------------------------------------------|


e|--------------------------------------|
B|--------------------------------------|
G|--------------------------------------|
D|-3-5p3-5p3-------3v-h5-5v--5/7---5-5v-|
A|-----------5p3-5---------------8------|
E|--------------------------------------|


                                                              Slow bend
e|--------------------------------------------------------------------------|
B|----------------------8------8-10b12r10p8-------------------10b12vr10--8v-|
G|----7---7h9h10-7h9h10---9h10-----------------10-8v--------9---------------|
D|------7-----------------------------------10-------10p9p8-----------------|
A|-/7-----------------------------------------------------------------------|
E|--------------------------------------------------------------------------|

                                             x3
e|-----------------5--------|-5--------|-5---------|
B|--6-6p5-8--6h8p6---8.-6v--|---8p5--5-|---8p5---5-|
G|--5-5---5-----------------|-------7--|-------7---|
D|--------------------------|----------|-----------|
A|--------------------------|----------|-----------|
E|--------------------------|----------|-----------|


e|---------------10-------------------------------------|
B|------10-13b15----13p10-------------------------------|
G|-6/10-------------------12p10-13p12p10----12----10v-\-|
D|---------------------------------------12----12-------|
A|------------------------------------------------------|
E|------------------------------------------------------|


                         x3
e|------------8-|-12p8---8-10p8---8-|-10p8---------------------------|
B|----8h10p8----|------8--------8---|------10.-10p9p8----8-10--------|
G|-/9--------9--|-------------------|-----------------10------7v--7\-|
D|--------------|-------------------|--------------------------------|
A|--------------|-------------------|--------------------------------|
E|--------------|-------------------|--------------------------------|


e|-----------------|
B|------3---3-6-5v-|
G|----3---3--------|
D|-/5--------------|
A|-----------------|
E|-----------------|


            ***x4**       ******x4*******         **x3***
e|----------------3----3--5p3---3-----------------------3----------|
B|-----3-3--6p3---3--3--------3---5p3---3------3--6p3---3--6p3---3-|
G|-5b7----------5---------------------5----5b7--------5--------5---|
D|-----------------------------------------------------------------|
A|-----------------------------------------------------------------|
E|-----------------------------------------------------------------|


e|------------------------------------|
B|-3-5p3---3--------------------------|
G|-------5---5p3p0-3\2---0------------|
D|---------------------3---3p1p0------|
A|-------------------------------1h3v-|
E|------------------------------------|


e|---------------------------------------------------------|---------------------------------------|
B|---------------------------------------------------------|---------------------------------------|
G|---------------------------------------------------------|-----5-5v-----5-5v-----5-5v---7p5---5v-|
D|-3p0---0-3p0---0-5p0---0-3p0---0-3p0---0-5p0---0-3p0---0-|-5h7------5h7------5h7------------7----|
A|-----5-------5-------5-------5-------5-------5-------5---|---------------------------------------|
E|---------------------------------------------------------|---------------------------------------|


e|----------------------------------------------------------------|--------------------------------|
B|----------------------------------------------------------------|---------------8-8-----11p8-8v/-|
G|----------------------------------------------------------------|-----5-5v--5/7.--7h9--9.--------|
D|-3p0---0-5p0---0-3p0---0-5p0---0-3p0---0-5p0---0-3p0--0-5p0---0-|-5h7----------------------------|
A|-----5-------5-------5-------5-------5-------5-------5------5---|--------------------------------|
E|----------------------------------------------------------------|--------------------------------|


e|----------------------------|--------------------------13b15v-----------------------------|
B|-13--------------13-11v-11v-|----15-13v---15b17-13v---x-------13h15v-15b17b18v--13-15-15v-|
G|-12b14vr12-10-10----10v-10v-|-12--------12------------------------------------------------|
D|----------------------------|-------------------------------------------------------------|
A|----------------------------|-------------------------------------------------------------|
E|----------------------------|-------------------------------------------------------------|

e|-15-----------------------------------------15-17p15----15-17p16p15----15------------------------|
B|-15-15--15-17-18-15-18p17-17p15----15-17-18----------18-------------18----18b20v-B20-20r18-17-15v|
G|---(15)-------------------------17---------------------------------------------------------------|
D|-------------------------------------------------------------------------------------------------|
A|-------------------------------------------------------------------------------------------------|
E|-------------------------------------------------------------------------------------------------|


e|---15----------------------15--------|
B|-15---17-18p17p15----15-17----18-17v-|
G|-----------------17------------------|
D|-------------------------------------|
A|-------------------------------------|
E|-------------------------------------|


e|-----17-------17-20-19\18-17---17------------------|
B|---17---20b22---------------20----20b22-18-18v-18v-|
G|-x-------------------------------------------------|
D|---------------------------------------------------|
A|---------------------------------------------------|
E|---------------------------------------------------|


e|----------------------------17-------17-20p18-20-20b22--------|
B|----------17-18h20-17h18h20----18h20----------------------18v-|
G|-19-17h19-----------------------------------------------------|
D|--------------------------------------------------------------|
A|--------------------------------------------------------------|
E|--------------------------------------------------------------|

Legend:
h = hammer-on
p = pull-off
b = bend
. = staccato (lift the finger off right after you play the note)
v = vibrato
r = return (return form the bend you just played e.g. 18b20r18, you bend 18 up to 20 and return)
B = bent (strike the bent note e.g. you play the note after you bend the note up)
(15) = optional, play the note if you want
/ = slide up
\ = slide down

x3, etc = repeat the lick, etc the number of times it says
**x3** = shows what to repeat how many times
Добавлено: 03.04.2012
Другие материалы по этой песне:

Страница создана 04.03.2012
http://primanota.ru/dire-straits/sultans-of-swing-live-chords.htm
Привет, Гость.
Предлагаем пройти революционный курс по гитаре.
Подарок от PrimaNota.Ru, забирай!