PrimaNota.ru - самый крупный в мире бесплатный архив песенных текстов, аккордов, табулатур и нот


Dire Straits - Private investigation on the night - таба, видео

Регистрация Запомнить меня
Войти через:  Facebook Google Twitter Vk Yandex Mail.ru

Dire Straits - Private investigation on the night - таба, видео

Печатать
Просмотров: 126



Date: Mon, 27 Feb 2006 13:40:41 +0100
From: Manuel Kaspar 
Subject: d/dire_straits/private_investigation_on_the_night.tab

Private Investigation On the Night

This is the version of Private Investigation, played on the CD On the Night. 
In my view this is the best Version of Private Investigation. 

Intro:
Guitar electrique: (echo the 2 parts)
-------------------| |----------------| |
--------8-12-10-12-|x|--------8-------|x|
------9------------| |------9---9-7-9-| |
----9--------------|x|----9-----------|x|
-10----------------| |-10-------------| |
-------------------| |----------------| |

Guitar acoustique:
------------------------------------------------------------------
---8-------------------------------------7s12-12-8s10-10-(10-8-10)
-----9s11-11--11p9h11-12-9--11-9p7-6--7-7-------------------------
-9----------------------------------------------------------------
------------------------------------------------------------------
------------------------------------------------------------------

-------------------------------f12----------f5------------3-2-1---
-10p8h10-10s12---------f12-f12-----f7----f5-----------------------
---------------12-------------------f5----------0-----0-3---------
--------------------------------------------------4-2-------------
------------------------------------------------------------------
------------------------------------------------------------------

-3s5---------------------------------||
-----5-5b6b5-4-5-------7-7-8---3-2-0-||
---------------------8-------9-------||
-------------------9-----------------||
-------------------------------------||
-------------------------------------||

Str. 1:
-7-------7-------|---------7-------|-7-------7---------|----------
-------8---8-----|-7-----7-------7-|---7---7---7---7-5-|----------
-----9-------9---|-----7-------7---|-----7-------7-----|----------
---9-----------9-|---9-------9-----|-------------------|----------
-----------------|-----------------|-------------------|----------
-----------------|-----------------|-------------------|----------

-5-------5-----5--|-3-------3---3-2-|-1-------1-5-----------|-----
---5---5---5----5-|---3---3---3-----|---1---1-----6-5-------|-----
-----6-------6----|-----4-----------|-----2-----------------|-----
------------------|-----------------|-----------------------|-----
------------------|-----------------|-----------------------|-----
------------------|-----------------|-----------------------|-----

-----------5-|-3-----0-0------3-2h3p2-0-|---------3-2-1-0-2-3-4-5-
-4-------4---|---5------------5---------|-------------------------
---4---4-----|-----4------(4)-----------|---3---3-----------------
-----4-------|-----------(5)------------|-2---2-------------------
-------------|--------------------------|-------------------------
-------------|--------------------------|-------------------------



-0-5-3-0--------------------------------------------|-------------
---------4-3-1-0-3-1-0------------------------------|-------------
-----------------------2-0-2------4-5-4-5-4---4-----|-------------
------------------------------x-4-----------7---5-4-|-------------
----------------------------------------------------|-------------
----------------------------------------------------|-------------
			  Str. 2:
-------------------------|-7-------7-------|-7-------7-------|----
-------------------------|---8---8---8---8-|---7---7---7---7-|----
-------------7-----------|-----9-------9---|-----7-------7---|----
-------5-7-9---9-8-7-6-5-|-----------------|-----------------|----
-7-5h7-------------------|-----------------|-----------------|----
-------------------------|-----------------|-----------------|----

-7-------7-----------|-5-------5-------|-3-------3---3-2-|--------
---7---7-------------|---5---5---5-----|---3---3---3-----|--------
-----7-------11-11-x-|-----6-------6---|-----4-----------|--------
-----------9---------|---------------7-|-----------------|--------
---------------------|-----------------|-----------------|--------
---------------------|-----------------|-----------------|--------

-1-------1-5-----|-------------------5---|-----------3-2h3-2-0-|--
---1---1-----6-5-|-4-------------4-------|-------5-------------|--
-----2-----------|-----4---4---4-------4-|-----4---4-----------|--
-----------------|---4---7---4-----4-----|---5-----------------|--
-----------------|-----------------------|---------------------|--
-----------------|-----------------------|-3-------------------|--

-3s6-3h5h6-3-6-3-0---------|-0-5-7-8-4-7-6-5-3--------------------
---------------------------|-------------------3-5----------------
-------------------3-2-1-0-|-----------------------4b5b4-3-4------
---------------------------|--------------------------------------
---------------------------|--------------------------------------
---------------------------|--------------------------------------
		 Str. 3:
------------2---|-3---3-2-3s5-3-10---|------------2-33-2h3p2------
---1----------3-|-3-3--------------3-|-3-----3--3------------5p3--
-2---0----------|-4------------------|---2-----2------------------
-------4-2------|--------------------|-----4----------------------
----------------|--------------------|----------------------------
----------------|--------------------|----------------------------
	that fits not exactly
-2----b7-7----------------7-------10-8-7-5-7----------------------
---5--b8---8------------8---10-12------------7h8-10-8-7-3-5-3-5---
------b7-----9--------9-------------------------------------------
------b9-------9----9---------------------------------------------
-----------------10-----------------------------------------------
------------------------------------------------------------------

--------------||
-3h5p3-b3-----||
----------5-4-||
--------------||
--------------||
--------------||

Solo:

-------10----10-------------------------10----12-10----10-9-------
-10s12----12----12-11-10-8--10-10h11b12----12-------12------12----
------------------------------------------------------------------
------------------------------------------------------------------
------------------------------------------------------------------
------------------------------------------------------------------

----10------------------10-12b-10----------10----10h12-10h12p10-9-
-14----14b-10-12--10-12-----------12-10-12----12------------------
------------------------------------------------------------------
------------------------------------------------------------------
------------------------------------------------------------------
------------------------------------------------------------------

-9h10s12-----9-9h10p9--9-7h9p7-----------------------5h7p5s3)-----
----------12---------------------10-------------------------------
-------------------------------9----12p9-7-9-7-6--(7--------------
------------------------------------------------------------------
------------------------------------------------------------------
------------------------------------------------------------------

---7s10-7h8p7-----------10----------------------------------------
---------------10-12-13----13-12--12-13--13-----------------------
-7------------------------------------------10h12p10-12-10-12-10--
------------------------------------------------------------------
------------------------------------------------------------------
------------------------------------------------------------------

-------------------------------------7--7-8-7-10-9-8-7------------
-----------------------------------7------------------------------
-9-7h9p7s5-7-5h7p5-x-----------7b8--------------------------------
-----------------------9b9-8-7------------------------------------
------------------------------------------------------------------
------------------------------------------------------------------

------------------------------------------------------------------
-10---------------------------------------------------------------
----12p9-7-9-12-9h12----------------------------------------------
---------------------12s14-12-9h12p9-7-7h9p7-5-5h7-5---5----------
-----------------------------------------------------7------------
------------------------------------------------------------------

----------6s9----8------------------------------------------------
--------8----------11p8---------------10-12-13-9-12-11-10---------
-x6-6-6-------x6--------10-(7h8p7:)-----------------------8h9-----
--------------------------------------------------------------10--
------------------------------------------------------------------
------------------------------------------------------------------



------------------------------------------------------------------
--------------------------------------------f12-------------------
----------------------------------------f.12----f12-----------7---
-10-9h10p9-7h10-7-9---9-10p9----------------------------5-7s9---9-
-----------------------------12-10p9-7--------------5h7-----------
------------------------------------------------------------------

---------------||
---------------||
---------------||
-8-7-5----x7-7-||
---------------||
---------------||

Basspart begins:
|-----|---------------------------------------------------|-------
|-----|---------------------7s5-8-8--10h11h12-10h12-------|-------
|-3s4-|-----------------4-7-------------------------12p11-|-------
|-----|-------2-------5-----------------------------------|-------
|-----|-----2---(5)-7-------------------------------------|-------
|-----|-0-3-----------------------------------------------|-------

------------------------------------------------------------------
-10---------------------------------------------------------------
----(12p9----9:4x)------------------------------------------------
---------12---------9p7-|play sth. in here|-----------------------
----------------------------------------------------10-9-7--------
------------------------------------------------------------------

------------------------------------------------------------------
----10h11-10---------------------------8p7------------------------
-12-----------12p9------9p7----------------7-7s9-7----------------
-------------------7-9------9-9p7-7s9--------------9-7-9----------
------------------------------------------------------------------------------------------------------------------------------------

-----------------------12s0--15-11-14--13-12----12-10-------------
----------7s8-10-11-12-----------------------12-------------------
--------9---------------------------------------------------------
------9-----------------------------------------------------------
-9-10-------------------------------------------------------------
------------------------------------------------------------------

--------10-----------------------------------------||
-(10h12----h12:)--5p3-0-5--------------------------||
---------------------------2h3p2p0h2---------------||
---------------------------------------------------||
-------------------------------------2h3p2p0-------||
---------------------------------------------3-2-0-||

|-------------------------|-----------------------0-| |
|-----3---3-----2---------|-----3---3-----3-----3---| |
|-----4-4---4-------0---0-|-----4-4---4-------4-----|x|
|---2---2-----2---2---2---|---2---2-----2---2-------| |
|-------------------------|-------------------------|x|
|-0-----------------------|-0-----------------------| |

Guitar electrique: loud
---------------------|----------------------------------0-|-------
-14-14-14-14-14-s-12-|-14-14-14-14-14-14-14-14-s12------0-|-------
-14-14-14-14-14-s-12-|-14-14-14-14-14-14-14-14-s12-b14--0-|-------
-14-14-14-14-14-s-12-|-14-14-14-14-14-14-14-14-s12-b14--2-|-------
-12-12-12-12-12-s-10-|-12-12-12-12-12-12-12-12----------2-|-------
-12-12-12-12---------|-12-12-12-12-12-12-12-12----------0-|-------

------------7----------------7----7-|---0-|-0----------------|----
----------8---10-----------8---10---|---0-|-0-0---0-7-5--d12-|----
--------9----------------9----------|---0-|-0---7------------|----
------9----------------9------------|-5-2-|-2----------------|----
-7s10-------------7s10--------------|-3-2-|-2----------------|----
------------------------------------|---0-|-0----------------|----

----------------------------------||---0-| |
----------8---------------8-------||---0-|x|
--------9---9-7---------9---9-7-9-||---0-| |distortion 
------9---------------9-----------||-5-2-|x|
-7s10------------7s10-------------||-3-2-| |
----------------------------------||---0-| |

Outro:
------------------------------------------------------------------
-7h8-7-7h8-7-10p8-7-----------------------------------------------
---------------------7h9-----------------7-------9-------11-12----
-------------------------7s9-5h7-----7----------------------------
----------------------------------10---9----9h10---10s12----------
------------------------------------------------------------------

-----------------------------5-7-f12----12------------------------
-----------------------5-7b8-------------------8-7----------------
-12p11-9-play-sth.-------------------12----12------9-play-sth.----
---------12-9----9---7--------------------------------------------
--------------12--------------------------------------------------

------------------------------------------------------------------
------------------------------------------------------------------
---9h12-11-9-------------9-8-6------------------------------------
-9-----------v9--------8-------8---------------7-7h8p7----7-------
-----------------9-8-7-----------9-8-7---7-9-8---------10---------
------------------------------------------------------------------

-0---0------------------------------------------------3s5-5s7-----
---3----------------------------------------------5-7-------------
------------------------------------------------4-----------------
-----------7h8p7----7-----------------------4-5-------------------
-------10h-------10-----(0h)2h3p3-0-------------------------------
------------------------------------3-2---0-----------------------

-10s12-14-----------f5-||
-----------f5----f5----||
--------------f5-------||
-----------------------||
-----------------------||
-----------------------||


Добавлено: 03.11.2013
Другие материалы по этой песне:
  • Аккорды и текст

Страница создана 03.11.2013
http://primanota.ru/dire-straits/private-investigation-on-the-night-chords.htm
Привет, Гость.
Предлагаем пройти революционный курс по гитаре.
Подарок от PrimaNota.Ru, забирай!