PrimaNota.ru - самый крупный в мире бесплатный архив песенных текстов, аккордов, табулатур и нот


Dire Straits - Money For Nothing Live Part 2 - таба, видео

Регистрация Запомнить меня
Войти через:  Facebook Google Twitter Vk Yandex Mail.ru

Dire Straits - Money For Nothing Live Part 2 - таба, видео

Печатать
Просмотров: 94
-------------------------------------------------------------------------------
                             Money For Nothing Live at Knebworth - Dire Straits
-------------------------------------------------------------------------------
Tabbed by: BistaKaji
E-mail: aloo_potato@hotmail.com

Tuning: Standard

Sorry for the delay but here is the second part of the solo played by Clapton.
 Listen well for the timing.

Clapton Main Solo.

 
   [Here the brb should be played like a vibrato]
e|------------------------------------------------------------------------------------------|
B|-14brb--14brb--14brb--14brb--13brb--13brb--13brb--11b---13brp11-13~~-11-------------------|
G|------------------------------------------------------------------------12-10-------------|
D|------------------------------------------------------------------------------12\10--8----|
A|------------------------------------------------------------------------------------------|
E|------------------------------------------------------------------------------------------|

e|---------------------------------------------------13--------------------------------------|
B|-----------11b-------------11-------------11-13b15----15r13-11-13b15-11----13~-11----------|
G|-----10--------12-10-10h12----12-10-10h12-------------------------------12-----------------|
D|-/12----12---------------------------------------------------------------------------------|
A|-------------------------------------------------------------------------------------------|
E|-------------------------------------------------------------------------------------------|
                 [slow release]
e|------------18-----------------------------------15-------------------|
B|-(x)-18b20-----20r18-x-18p15----18------------15----15-18-------------|
G|-----------------------------17----17b19---17-------------17b19--15---|
D|--------------------------------------------------------------------17|
A|----------------------------------------------------------------------|
E|----------------------------------------------------------------------|

e|---------------------------------------------------------13----12-10-----------------------------|
B|11-4brb--14brb--14brb--14brb--13brb--13brb--13brb--11-------13-------13-11b----------------------|
G|------------------------------------------------------12--------------------12-10----------------|
D|-----------------------------------------------------------------------------------12\10-8-8\5-5-|
A|-------------------------------------------------------------------------------------------------|
E|-------------------------------------------------------------------------------------------------|

Please rate and leave feedback.
Enjoy!
************************************

| /   slide up
| \   slide down
| h   hammer-on
| p   pull-off
| ~   vibrato
| +   harmonic
| x   Mute note
| b   Bend
| pb  Pre-bend
| br  Bend release
| pbr Pre-bend release
| brb Bend release bend

************************************
Добавлено: 01.09.2015
Другие материалы по этой песне:
  • Аккорды и текст

Страница создана 01.09.2015
http://primanota.ru/dire-straits/money-for-nothing-live-part-2-chords.htm
Привет, Гость.
Предлагаем пройти революционный курс по гитаре.
Подарок от PrimaNota.Ru, забирай!