PrimaNota.ru - самый крупный в мире бесплатный архив песенных текстов, аккордов, табулатур и нот


Dire Straits - Money For Nothing Live - таба, видео

Регистрация Запомнить меня
Войти через:  Facebook Google Twitter Vk Yandex Mail.ru

Dire Straits - Money For Nothing Live - таба, видео

Печатать
Просмотров: 142
-------------------------------------------------------------------------------
                             Money For Nothing Live at Knebworth -- Dire Straits
-------------------------------------------------------------------------------
Tabbed by:BistaKaji
E-mail:aloo_potato@hotmail.com
Tuning:Standard

Hey Guys, I have taken a lot from UG, So now I have also decided to contribute to the site.
This is my first tab. Money for Nothing Live at Knebworth is one of my favorite version of the song.
(Also Only Clapton can pull off that pink suit.) I gave it a try and decided to tab it 
out. I am quite sure that
I got Mark Knopfler's part right. Clapton's part of the tab in intro is not accurate but it is a fair
assumption of what's going on.

I have not gotten around to figuring out Clapton's "flying" solo but probably will do it soon.

Listen to the song for timing and the vibratos.

Intro:

Mark Knopfler
e|---------------------------------------------------------------------------|
B|---------------------------------------------------------------------------|
G|-----/7---5-7-3-5-p3h5-p3h5---p3p0h3h5--p3p0-------------------------------|
D|----/5---------------------------------------------------------------------|
A|---------------------------------------------------------------------------|
E|---------------------------------------------------------------------------|

e|-----------3-------------------------------------------------------------------|
B|---------3---6-3---3-----------------------------------------------------------|
G|---0h3h5---------5---3h5h6-6p5p3---3-5b6r5--3------3---------------------------|
D|---------------------------------5-------------5--x---5------------------------|
A|-----------------------------------------------5-------------------------------|
E|-------------------------------------------------------------------------------|

Eric Clapton (This is not correct but it sounds similar to what Clapton plays,)
e|------------------------------------------------------------------------------------------------------|
B|------------------------------------------------------------------------------------------------------|
G|----------12-12--10------10-----------------3---3h5p3---3----------------------3--5-5-3h5p3----3------|
D|---12h14-------------12------12--10b11--8\5---5-------5-----5p3h5p3h5p3h5p3h5----------------5--------|
A|------------------------------------------------------------------------------------------------------|
E|------------------------------------------------------------------------------------------------------|

e|---------3----------------------------------------------------------------------------|
B|-------3---6p3---3--------------------------------------------------------------------|
G|---3h5---------5----5p3h5p3-----------------------------------------------------------|
D|-----------------------------5p3------------------------------------------------------|
A|---------------------------------5p3/1-3/5p3h5p3h5p3h5p3h5----------------------------|
E|--------------------------------------------------------------------------------------|
Mark Knopfler
e|--------------------------------------------------------------------------------------|
B|--------------------------------------------------------------------------------------|
G|--------------------------------------7-----------------------------------------------|
D|--3h5p3h5p3h5--p3p0-------5---5-8-5------5-5--3---------------------------------------|
A|---------------------3/5----5--------------------5-3-\1p3--p1h3p1h3-------------------|
E|---------------------------------------------------------------------1h3p1h3----------|

Eric Clapton
e|---------------------------------------------------------------------------|
B|---------------------------------------------------------------------------|
G|--------0---0---0---0------------------------------------------------------|
D|-----/5---5---5---5--------------------------------------------------------|
A|---------------------------------------------------------------------------|
E|---------------------------------------------------------------------------|


Mark Knopfler Main Guitar Solo:

e|------------------------------------------------------------|
B|-------------------------------------------------3-6-3h6-5--|
G|---/7--5h7-5h7--6p5\3-5hp3---3-5-5b-5br5p3-5-3h5------------|
D|---/5----------------------5--------------------------------|
A|------------------------------------------------------------|
E|------------------------------------------------------------|
      (Already bent full step at 4th fret)
e|-------------------------------------------------------------------|
B|-----pb(6)r4p3---3-------------------------------------------------|
G|---------------5---6p5p3-5---3------------------------------5-3-0--|
D|--------------------------------5------5----8b-5-5\3/5\3-\5--------|
A|-----------------------------------3/5---5-------------------------|
E|-------------------------------------------------------------------|

e|-------------------------------------------------------------------------------------------------------|
B|-------------------------------------------------------------------------------------------------------|
G|-----12-14-12-----12--------12---------12-14-14b15r14-12---------------12-14brbrbr-12h14--12-----------|
D|-/12-----------15-----15p12-----15p12---------------------15-12------12--------------------------------|
A|-------------------------------------------------------------------------------------------------------|
E|-------------------------------------------------------------------------------------------------------|


e|---------------------------------------------------------15------------------------|
B|--------18----------18----------------15---------------------15--18p15-------------|
G|-17b19-----17b19-------17b19r17-15-17----15----------17-----------------17-15b-----|
D|--------------------------------------------17---------------------------------17--|
A|-----------------------------------------------------------------------------------|
E|-----------------------------------------------------------------------------------|

Leave Feedback and/or correction!


************************************

| /   slide up
| \   slide down
| h   hammer-on
| p   pull-off
| ~   vibrato
| +   harmonic
| x   Mute note
| b   Bend
| pb  Pre-bend
| br  Bend release
| pbr Pre-bend release
| brb Bend release bend

************************************
Добавлено: 11.06.2015
Вам также может быть интересно:
Другие материалы по этой песне:
  • Аккорды и текст

Страница создана 11.06.2015
http://primanota.ru/dire-straits/money-for-nothing-live-chords.htm
Привет, Гость.
Предлагаем пройти революционный курс по гитаре.
Подарок от PrimaNota.Ru, забирай!