PrimaNota.ru - самый крупный в мире бесплатный архив песенных текстов, аккордов, табулатур и нот


Dire Straits - Dire Straits - аккорды и текст, таба, видео

Регистрация Запомнить меня
Войти через:  Facebook Google Twitter Vk Yandex Mail.ru

Dire Straits - Dire Straits - аккорды и текст, таба, видео

Печатать
Просмотров: 164
Dire Straits
Dire Straits
Solo 1

3:29 3:33 3:40
E|--------------------------------------9-12-10--------|
h|10--10-10-10------------------------10-------10------|
G|------------10h12r10-9h10r9--------9-----------10----|
D|---------------------------------11--------------12--|
A|-------------------------------12--------------------|
E|-----------------------------12----------------------|

E|------------------------------------|
B|-11-13-11h13r11-10h11r10-11-9--9-10-|
G|------------------------------------|
D|------------------------------------|
A|------------------------------------|
E|------------------------------------|

3:41 3:50
E|-----13----------13-12--------------------------------------|
h|--13---13-------------13--------13-13-13---15-15-13--15-15--|
G|14-------14-------------12-14-12-------------------15-------|
D|-----------15-15--------------------------------------------|
A|------------------------------------------------------------|
E|------------------------------------------------------------|

E|---13-10-----10-----------|
B|-10-----10-13--13-10------|
G|--------------------12-10-|
D|--------------------------|
A|--------------------------|
E|--------------------------|

3:53
E|---------------------------------------------------------------|
h|-----3h6r3---5-6-8-6-5-6-8-6------3h6r3---------5--8-5-----5---|
G|---3---------5------------------3-----------5-7--------7-5---7-|
D|-3-----------5----------------3-----------5--------------------|
A|---------------------------------------------------------------|
E|---------------------------------------------------------------|

Solo 2
5:06
4:59 5:02
E|-----------------------------------------------------------------------------|
h|-10-------------------10---------------------------------10-8h10r8----8------|
G|----12-10-12-10----------10h12r10-7h10r7-5h7r5---------------------10---10-7-|
D|----------------12-12-------------------------5h7r5--------------------------|
A|---------------------------------------------------5h7r5---------------------|
E|-----------------------------------------------------------------------------|

5:09 5:12
E|-----5h8-----5h8-----5h8-----------------------13-10-------------------------|
h|-5h8-----5h8-----5h8-----5------------------10------13-10--------------10----|
G|---------------------------------------------------------12-10------------12-|
D|--------------------------------------------------------------12--10-12------|
A|-----------------------------------------------------------------------------|
E|-----------------------------------------------------------------------------|

5:15 5:18
E|----------------------12-----10---13r10---10-----|
h|------10-------11---13--13-11-----------10--(x4)-|
G|10-12----10-12-----------------------------------|
D|-------------------------------------------------|
A|-------------------------------------------------|
E|-------------------------------------------------|

E|-13r10---10-----15r12---12------15r12----|
B|-------11---(x4)------13---(x7)-------13-|
G|-----------------------------------------|
D|-----------------------------------------|
A|-----------------------------------------|
E|-----------------------------------------|

E|-13r10---10-----13r10---10-----15r12---12------15r12----|
h|-------10--(x4)-------11---(x4)------13---(x7)-------13-|
G|--------------------------------------------------------|
D|--------------------------------------------------------|
A|--------------------------------------------------------|
E|--------------------------------------------------------|

5:32
E|--17--17-15---------------15---17--15h17r15-|
h|------------18-15---15-18-------------------|
G|--------------------------------------------|
D|--------------------------------------------|
A|--------------------------------------------|
E|--------------------------------------------|

E|-----------------------------------------------|
B|-15h18r15-13h15r13-10h13r10--------------------|
G|----------------------------9h12r9-------------|
D|-----------------------------------10h12r10----|
A|--------------------------------------------12-|
E|-----------------------------------------------|
Добавлено: 06.09.2013
Другие материалы по этой песне:
  • Аккорды и текст

Страница создана 10.07.2013
http://primanota.ru/dire-straits/dire-straits-chords.htm
Привет, Гость.
Предлагаем пройти революционный курс по гитаре.
Подарок от PrimaNota.Ru, забирай!