PrimaNota.ru - самый крупный в мире бесплатный архив песенных текстов, аккордов, табулатур и нот


Dire Straits - Brothers in arms on the night - таба, видео

Регистрация Запомнить меня
Войти через:  Facebook Google Twitter Vk Yandex Mail.ru

Dire Straits - Brothers in arms on the night - таба, видео

Печатать
Просмотров: 142



Date: Mon, 12 Sep 2005 11:43:54 +0200
From: Manuel Kaspar 
Subject: d/dire_straits/brothers_in_arms_on_the_night.tab


Dire Straits ~V Brothers in Arms Version von On the night

Hi this is the tab of brothers in arms dire straitsґs playing at the cd ~DOn the night~S. The tab is quite good. But especially in the last solo from mark knopfler itґs very difficult to hear if heґs banding, sliding, pulling, ... . So feel free to try to make this tab better or play in your own style.

H hammer
p pull
b band  (6b7b6 means that you play hold the string on 6 and band until it has the sound of 7/ (6)b7 means that you play the string when it is banded not before)
s slide
/ volume fade in

the vertical lines only indicate a distance between the different parts

Intro:
 -----------------------------------------------------------------
 -------------------------------------------------------------4---
 ---------------------------/v6-8p6-4--6-8-9-8-6------------4---6-
 -------6-8-6--8-9-8-6p4h6-----------------------9-8-6-4-6--------
 ---4h6-----------------------------------------------------------
 -----------------------------------------------------------------

 ------------------------------------------------------
 -------------------------------4-2-0--------------4---
 -----4-6b-4---4-6-6p4p3-------------------------4---6-
 -4h6-------------------------6--------8-6-6p4h6-------
 -------------------------4h6--------------------------
 ------------------------------------------------------


-------------
-------------
-6-4p3-1-4-3-
-------------
-------------
-------------
 ... mountains
        
        ------------------------|-------------------|-----------------------
        ------------------------|-------------------|-----------------------
        -----8-6---8-10b11b10-8-|--1s4-v6----/v4-v3-|-6-4-6-1h3-------------
        -6s8-----8--------------|-------------------|-----------------------
        ------------------------|-------------------|-----------------------
        ------------------------|-------------------|-----------------------

 ...return to               ...farms          ...in arms

-----------------------------------------------------------
-------------------------------------4h5-------------------
-x-4-4~W3h6-4-3----------4-b6-4-v6--4-----6-------------/v8-
---------------6-4-6--6------------------------------------
-----------------------------------------------------------
-----------------------------------------------------------

 -----------v2----------------|----------------------------
 ---7-------------------------|--4-5-5s7-------------------
 -6---4p3-1-------------------|----------------------------
 -----------------------------|----------------------------
 -----------------------------|----------------------------
 -----------------------------|----------------------------

...destruction               ...of fire



 -------------------------|--------------------|----------------------------
 -----4---4-2---4-6h7-6-4-|--/5-v4-------------|----------.0h7--7-7h9-7-----
 -1s3---3-----3-----------|--------6-4-4-6-4-3-|------8---------------------
 -------------------------|------------4-------|--6s8---8-------------------
 -------------------------|--------------------|----------------------------
 -------------------------|--------------------|----------------------------

...suffering             ...raged higher             ...so bad

 ------------------------|-------2-------------|---------------------------
 ------------------------|-2-0-0---------------|---------------------------
 --4-4h6--4--3-----------|-3-------3-----------|---------------------------
 ------------------------|---------------------|---------------------------
 ------------------------|---------------------|---------------------------
 ------------------------|---------------------|---------------------------

...and alarm             ...Brothers in arms

---------------------------------------------------------------------
-----9-7-v9--7s9-7----------------------------------------------------
-.b8---------------8-6-----------------8-b6-------6b8b6---------8p-v6-
-----------------------9-8-6p4h6---6-9------9-6-9-------9---6-9-------
-------------------------------------9-------------------------------
---------------------------------------------------------------------

---------------------------
---------------------------
-8p6-4s6~W4p3---------------
-------------6p4-----4s6---
-----------------6s4-------
---------------------------

 
 ------------------------|---------------------|---------------------------
 ------------------------|-----------------4---|--5-4-----4----------------
 -------3s4-8-6-(8-6)----|--3-4p3---4s6---4-6--|------6-4---4-6------------
 -----6-----9------------|--------6------------|---------------------------
 -4s6--------------------|---------------------|---------------------------
 ------------------------|---------------------|---------------------------

...worlds                  ...suns                   ...one world


------------------------------------------------------------------------
---------------------4-7s9-v9--9h11-9--------7s9-9-11-9-11-||9h11p9::||-
---9----------------4-----------------11-9------------------------------
-------9s0--------6-----------------------------------------------------
-7----------4s6-6-------------------------------------------------------
------------------------------------------------------------------------
...ones

------------------
-9p7----9-7-5h7p5-
-----9------------
------------------
------------------
------------------


 -----------------------------------4-4-------------------------------------
 ---------------------------2s4-----4-4--b6---------------------------------
 -------------------------------------------6s8s6-4-6-----------------------
 ---------------------------------------------------------------------------
 ---------------------------------------------------------------------------
 ---------------------------------------------------------------------------




 -----------------------------------------------------------------------------
 ------------------------------------------------------------------------4----
 -----4-3---6--4-3-------------b6---b6-8-9-8-9-8-6-----6---------------4---6--
 ---------6--------6-4-6---6-9----9----------------9-8---9-8-6-4-6---6--------
 -----------------------------------------------------------------------------
 -----------------------------------------------------------------------------

---------------------------------
---------------------------------
-6h8s6~W4s6---4s6s4-4-------------
---------------------6-----------
---------------------------------
-------------------------11p9-s4-







 -----------------------------|---------------------|
 -12-----7--------------------|-4-5-5s7-------------|
 ----(6)-6-6------------------|---------------------|
 --------8---9p8-6-9-6s8------|---------------------|
 -----------------------------|---------------------|
 -----------------------------|---------------------|

 ...hell yeah              ...high


 -------------------|-----------------------------------|
 -11p9h11-b11-9-----|-7------------4-5p4-----4---------|
 ---------------11--|-8------6-----------4-6---6-v4-v6-|
 -------------------|-9--------------------------------|
 -------------------|-----6s7---------------------------|
 -------------------|-----------------------------------|

...farewell                    ...die              


 ------------------------------|---4------9-------------|
 -----------12-11p9-7h9-v11--s-|-7-7s9-9----b11--11-9-7-|
 --13s15-15--------------------|------------b11---------|
 ------------------------------|------------------------|
 ------------------------------|------------------------|
 ------------------------------|------------------------|

...starlight                    and every line...

-------------------------------------
----5-4-------5----7-----7-----------
--------6-4------6-6-4-6-6-----------
------------6------8-----4-6s8-------
-------------------------------------
-------------------------------------

...fools to make war on our brothers in arms



Outro Solo below:

-----------------------------------------------------------------------------
----v9-7s9-9-11-9-7--7p4-----------------------------------------------------
-.8----------------------6h8-6s4---x4-6-x4-4-6-4--4---4-6-8p6-4h-v6--4-------
--------------------------------------9----6====--6---6----------------------
-----------------------------------------------------------------------------
-----------------------------------------------------------------------------

------------------------------------------------------------------------------
--------b4-5-4---4------------------------------------------------------------
---4-b6--------6---6p4-3-6p4-3-------------4-4---4h6-b6b8b6-4-6--4------------
-6-----------------------------6-4-6---4h6-6---6----------------------6---4s6-
------------------------------------------------------------------------------
------------------------------------------------------------------------------

----------------------------------------------------------------------------
-------------------------------------------------------9---9-11-v12---------
----------------6---6s9-8-9-6s8-b8-x8---------------h8-8-8-8----------------
--------------6---6---------------------8b9b8-6-6------9--------------------
-6-7s6s4s6s4----------------------------------7-7---------------------------
----------------------------------------------------------------------------

------------------------------------------------------------7b9b7b9-12-7b9-7b9-
-(12)b14b12b14b12-11-v9~W--7-9-11-9-7-9-11-12-v12-((7)b9b7)-------------8b10----
-----------------------------------8-------------------------------------------
-------------------------------------------------------------------------------
-------------------------------------------------------------------------------
-------------------------------------------------------------------------------

-12-v9~W7b9b7-6s7-6s4-2-------------------------------------------------------
-----------------------v4--------------------------------4-------------------
-----------------------v6-4-3--------------------------4---6-4-3b4b3---------
------------------------------6p4h6--4-6-4h6p4-------6---------------6-4h6---
-------------------------------------------------4s6-6-----------------------
-----------------------------------------------------------------------------


-----------------------------------|-------------|-------------|
---------9-7-9---------------------|-------------|-4s5p4-----4-|
-----6s8-------9s8-6-4-6-8-6-------|-6-6p4-------|-------4-----|
-4s6-6s9---------------------9p8-6-|-6-6---6p4-6-|---------6---|
-----------------------------------|-------------|-------------|
-----------------------------------|-------------|-------------|

-(4s2)--------------|------------------------------||
-(5s2)-4----4---7---|-4s5-5-4s5--------------------||
-(6s3)---4----4---6-|-4s6-6-4s6-4--6-5s6-4-3-------||
--------------------|-4s6-6-4s6------5s6-----6-4-6-||
--------------------|------------------------------||
--------------------|------------------------------||
silent			again loud


Now another guitar plays:

-b4-4s6-6s-v7-6s-v7-6s-v4-6s7-7s-v9-7s9--------------------------
----------------------------------------b7s5-7b9b7-5-------------
-----------------------------------------------------6b8-6b8b6-4-
-----------------------------------------------------------------
-----------------------------------------------------------------
-----------------------------------------------------------------

----------------------------------9s7-v9--7s9-14-14s-v16-s7-7b9b7----
----------------------------5s4---9---v9--------------------------v9-
-(6)b8-8b6-4-6b8-8b6-4~W1s4-----v6------------------------------------
---------------------------------------------------------------------
---------------------------------------------------------------------
---------------------------------------------------------------------

9b11-(9)b11b9----------7-9b11b9-7---------9-11-14-16-18-19-19b21-v19-16p14-14h16
--------------v9s7-7s9------------v9-7s12-9-12-14-17-19-19----------------------
-------------------------------------8------------------------------------------
--------------------------------------------------------------------------------
----------------------------------------------------------------------------------------------------------------------------------------------------------------


-14p12-12-v14--14-12p11-9-7b9-7b9---------------------------------------||
--------------------------7b9-7b9----7b9b7------------------------------||
-----------------------------------9-------9--8b9--b8-------------------||
----------------------------------------------9b10-b9-9-8---------------||
-----------------------------------------------------------9-11---11----||
------------------------------------------------------------------------||

another guitar

-11s7-------14----14-14-v12---11-14p11-9-11-14-11h14-14b16b14b16--
-12---12-12----12-------------------------------------------------
------------------------------------------------------------------
------------------------------------------------------------------
------------------------------------------------------------------
------------------------------------------------------------------






-16-18p16-14-16-14b16--16-19p16-19p16----19p16----19b21-19b21-
--------------------------------------16-------16-------------
--------------------------------------------------------------
--------------------------------------------------------------
--------------------------------------------------------------
--------------------------------------------------------------

-(19)b21b19-18b19-19b21b19-18-18b21-19-18-16p14-------------------------------
------------------------------------------------16p14-16p14-------14----------
------------------------------------------------------------16p15----16p15-13-
------------------------------------------------------------------------------
------------------------------------------------------------------------------
------------------------------------------------------------------------------

-----------------------4-2b4-4-6h-v7-7b9-7-6----------9-7-6--------------
---------------------5-----------------------v9-12p9--9-----9-7-9--------
-15-13-13-15-v13s0---6--------------------------------------------9-v9s0-
----14-------------------------------------------------------------------
-------------------------------------------------------------------------
-------------------------------------------------------------------------

---4---4-7-4---4-----------------------|
-----7-------7-------------------------|
-6----------------8-9p8------------4s6-|
------------------9-----11-9s8s9s8-----|
---------------------------------------|
---------------------------------------|


You can play following to the last outro:
-----|------||
-----|------||
-----|--3h4-||
-6---|-(4)--||
---7-|------||
-----|------||
       

Tabbed by Manuel Kaspar


Добавлено: 21.09.2013
Другие материалы по этой песне:
  • Аккорды и текст

Страница создана 21.09.2013
http://primanota.ru/dire-straits/brothers-in-arms-on-the-night-chords.htm
Привет, Гость.
Предлагаем пройти революционный курс по гитаре.
Подарок от PrimaNota.Ru, забирай!