PrimaNota.ru - самый крупный в мире бесплатный архив песенных текстов, аккордов, табулатур и нот


Dir En Grey - Red Soil - текст песни, таба, видео

Регистрация Запомнить меня
Войти через:  Facebook Google Twitter Vk Yandex Mail.ru

Dir En Grey - Red Soil - текст песни, таба, видео

Печатать
Просмотров: 236
Artist:Dir en grey
Album:UROBOROS
Song:Red Soil 

Die tuning
----------
1D#   4C#
2A#   5G#
3F#   6C#

[Intro]
   Pm...............................
D#|-----------------------------------------0-|
A#|------------------------------------12-----|
F#|---11-11---12-12----11-11----9-9-11----11--|
C#|-9-------9-------10-------10---------------|
G#|-------------------------------------------|
C#|-------------------------------------------|

   Pm...............................
D#|-----------------------------------------0-|
A#|------------------------------------12-----|
F#|---11-11---12-12----11-11----9-9-11----11--|
C#|-9-------9-------10-------10---------------|
G#|-------------------------------------------|
C#|-------------------------------------------|

12 String
D#|------------0-----------------0------------|
A#|-------12-------12-------12-------12-------|
F#|---0------0---0------0------0---0----------|
C#|-9---9-------------9---9-------------------|
G#|-------------------------------------------|
C#|-------------------------------------------|


D#|-------------0-------------------0---------|
A#|--------13-------13---------13-------13----|
F#|----0------0---0-------0-------0---0-------|
C#|-10---10------------10---10----------------|
G#|-------------------------------------------|
C#|-------------------------------------------|


D#|------------0-----------------0------------|
A#|-------12-------12-------12-------12-------|
F#|---0------0---0------0------0---0----------|
C#|-9---9-------------9---9-------------------|
G#|-------------------------------------------|
C#|-------------------------------------------|


D#|------------------0--|
A#|-------12------15----|
F#|---0---------0-------|
C#|-9---9----12---------|
G#|---------------------|
C#|---------------------|


D#|-------------0-------------------0---------|
A#|--------13-------13---------13-------13----|
F#|----0------0---0-------0-------0---0-------|
C#|-10---10------------10---10----------------|
G#|-------------------------------------------|
C#|-------------------------------------------|


D#|------------0--------|
A#|-------11-------11---|
F#|---0------0---0------|
C#|-8---8---------------|
G#|---------------------|
C#|---------------------|

This is 100% accurate.any questions just leave a comment and dont forget to rate.
Добавлено: 08.04.2012
Другие материалы по этой песне:

Страница создана 08.04.2012
http://primanota.ru/dir-en-grey/red-soil-chords.htm
Привет, Гость.
Предлагаем пройти революционный курс по гитаре.
Подарок от PrimaNota.Ru, забирай!