PrimaNota.ru - самый крупный в мире бесплатный архив песенных текстов, аккордов, табулатур и нот


Dir En Grey - Conceived Sorrow - текст песни, таба, бас-таба, видео

Регистрация Запомнить меня
Войти через:  Facebook Google Twitter Vk Yandex Mail.ru

Dir En Grey - Conceived Sorrow - текст песни, таба, бас-таба, видео

Печатать
Просмотров: 190
Авторы музыки: DIR EN GREY
Авторы текста: 京
Album - The Marrow of a Bone
Tab   - Kaoru 

My 2nd tab, hope it didn't come out too bad..
I'll be trying to figure out Die's tab for this soon.
Any questions, enquiries etc, contact me at;
R_to_the_core@hotmail.co.uk




[Instruments start at 0:35]
D#|---------------------------------------------------------------|
A#|---------------------------------------------------------------|
F#|---------------------------------------------------------------|  x4
C#|----11-10-11-10------------------------------------------------|
G#|5-7------------------------------------------------------------|
C#|---------------------------------------------------------------| 

[Break]

[1:34]



D#|---------------------------------------------------------------|
A#|---------------------------------------------------------------|
F#|---------------------------------------------------------------|
C#|----11-10-11-10-----11-10-11-10------11-10-11-----------11-10--|
G#|5-7-------------5-7--------------5-7----------7-5-7-5-7--------|
C#|---------------------------------------------------------------|


D#|---------------------------------------------------------------|
A#|---------------------------------------------------------------|
F#|----------------------------------------7----------------------|
C#|11----------11-10-11-----------11-10-11--10-9----11-10-11-10---|
G#|--7-5-7-5-7----------7-5-7-5-7---------------5-7------------7-5|
C#|---------------------------------------------------------------|


D#|---------------------------------------------------------------|
A#|---------------------------------------------------------------|
F#|----------------------------------------------------------7----|
C#|------11-10-11-10-----------11-10-11-10-----------11-10-11-10-9|
G#|7-5-7-------------7-5-7-5-7-------------7-5-7-5-7--------------|
C#|---------------------------------------------------------------|


D#|---------------------------------------------------------------|
A#|---------------------------------------------------------------|
F#|---------------------------------------------------------------|  x4
C#|----11-10-11-10------------------------------------------------|
G#|5-7------------------------------------------------------------|
C#|---------------------------------------------------------------| 

Chorus [2:15]
D#|---------------------------------------------------------------|
A#|---------------------------------------------------------------|
F#|---------------------------------------------------------------|
C#|7-7-7-7-7-7-7-7-7-7-7-7-7-7-7-7-5-5-5-5-5-5-5-5-5-5-5-5-5-5-5-5|
G#|7-7-7-7-7-7-7-7-8-8-8-8-8-8-8-8-5-5-5-5-5-5-5-5-5-5-5-5-5-5-5-5|
C#|7-7-7-7-7-7-7-7-7-7-7-7-7-7-7-7-5-5-5-5-5-5-5-5-5-5-5-5-5-5-5-5|


D#|---------------------------------------------------------------|
A#|---------------------------------------------------------------|
F#|---------------------------------------------------------------|
C#|5-5-5-5-5-5-5-5-5-5-5-5-5-5-5-5-2-2-2-2-2-2-2-2-2-2-2-2-2-2-2-2|
G#|3-3-3-3-3-3-3-3-3-3-3-3-3-3-3-3-2-2-2-2-2-2-2-2-2-2-2-2-2-2-2-2|
C#|3-3-3-3-3-3-3-3-3-3-3-3-3-3-3-3-2-2-2-2-2-2-2-2-2-2-2-2-2-2-2-2|

[2:44]
D#|---------------------------------------------------------------|
A#|---------------------------------------------------------------|
F#|---------------------------------------------------------------|
C#|----11-10-11-----------11-10-11----------11-10-11----------11--|
G#|5-7----------7-5-7-5-7---------7-5-7-5-7---------7-5-7-5-7-----|
C#|---------------------------------------------------------------|


D#|---------------------------------------------------------------|
A#|---------------------------------------------------------------|
F#|------7--------------------------------------------------------|
C#|10-11--10-9------11-10-11----------11-10-11---------11-10-11---|
G#|-------------5-7---------7-5-7-5-7---------7-5-7-5-7--------7-5|
C#|---------------------------------------------------------------|


D#|---------------------------------------------------------------|
A#|---------------------------------------------------------------|
F#|-----------7---------------------------------------------------|
C#|------11-10-10-9----11-10-11-10----11-10-11-10---11-10-11-10---|
G#|7-5-7------------5-7-----------5-7------------5-7-----------5-7|
C#|---------------------------------------------------------------|

                 [Kyo's break]
D#|---------------------------------------------------------------|
A#|---------------------------------------------------------------|
F#|---------------------------------------------------------------|
C#|11-10-11-10----------------------------------------------------|
G#|---------------------------------------------------------------|
C#|---------------------------------------------------------------|

[Second/Third Chorus, 3:40]
D#|---------------------------------------------------------------|
A#|---------------------------------------------------------------|
F#|---------------------------------------------------------------|
C#|7-7-7-7-7-7-7-7-7-7-7-7-7-7-7-7-5-5-5-5-5-5-5-5-5-5-5-5-5-5-5-5|
G#|7-7-7-7-7-7-7-7-8-8-8-8-8-8-8-8-5-5-5-5-5-5-5-5-5-5-5-5-5-5-5-5|
C#|7-7-7-7-7-7-7-7-7-7-7-7-7-7-7-7-5-5-5-5-5-5-5-5-5-5-5-5-5-5-5-5|


D#|---------------------------------------------------------------|
A#|---------------------------------------------------------------|
F#|---------------------------------------------------------------|
C#|5-5-5-5-5-5-5-5-5-5-5-5-5-5-5-5-2-2-2-2-2-2-2-2-2-2-2-2-2-2-2-2|
G#|3-3-3-3-3-3-3-3-3-3-3-3-3-3-3-3-2-2-2-2-2-2-2-2-2-2-2-2-2-2-2-2|
C#|3-3-3-3-3-3-3-3-3-3-3-3-3-3-3-3-2-2-2-2-2-2-2-2-2-2-2-2-2-2-2-2|


D#|---------------------------------------------------------------|
A#|---------------------------------------------------------------|
F#|---------------------------------------------------------------|
C#|7-7-7-7-7-7-7-7-7-7-7-7-7-7-7-7-5-5-5-5-5-5-5-5-5-5-5-5-5-5-5-5|
G#|7-7-7-7-7-7-7-7-8-8-8-8-8-8-8-8-5-5-5-5-5-5-5-5-5-5-5-5-5-5-5-5|
C#|7-7-7-7-7-7-7-7-7-7-7-7-7-7-7-7-5-5-5-5-5-5-5-5-5-5-5-5-5-5-5-5|

D#|---------------------------------------------------------------|
A#|---------------------------------------------------------------|
F#|---------------------------------------------------------------|
C#|5-5-5-5-5-5-5-5-5-5-5-5-5-5-5-5-2-2-2-2-2-2-2-2-2-2-2-2-2-2-2-2|
G#|3-3-3-3-3-3-3-3-3-3-3-3-3-3-3-3-2-2-2-2-2-2-2-2-2-2-2-2-2-2-2-2|
C#|3-3-3-3-3-3-3-3-3-3-3-3-3-3-3-3-2-2-2-2-2-2-2-2-2-2-2-2-2-2-2-2|

D#|---------------------------------------------------------------|
A#|---------------------------------------------------------------|
F#|---------------------------------------------------------------|
C#|----11-10-11-10----11-10-11-10---11-10-11-10---11-10-11-10-----|
G#|5-7-------------5-7-----------5-7-----------5-7----------------|
C#|---------------------------------------------------------------|
Добавлено: 17.03.2012
Другие материалы по этой песне:

Страница создана 13.03.2012
http://primanota.ru/dir-en-grey/conceived-sorrow-chords.htm
Привет, Гость.
Предлагаем пройти революционный курс по гитаре.
Подарок от PrimaNota.Ru, забирай!