PrimaNota.ru - самый крупный в мире бесплатный архив песенных текстов, аккордов, табулатур и нот


Dir En Grey - Agitated Screams Of Maggots - текст песни, таба, видео

Регистрация Запомнить меня
Войти через:  Facebook Google Twitter Vk Yandex Mail.ru

Dir En Grey - Agitated Screams Of Maggots - текст песни, таба, видео

Печатать
Просмотров: 159
Авторы музыки: DIR EN GREY
Авторы текста: 京
D#|----------------------|------------------|----------------|----------------|
A#|----------------------|------------------|----------------|----------------|
F#|----------------------|------------------|----------------|----------------|
C#|-------------3--------|------3--------3--|----------------|----------------|
G#|----------------------|------------------|--0-0-0--3-5-3--|-3\6--5--1-3-1--|
C#|---0--0---0-----0--0--|---0-----0--0-----|--0-0-0--3-5-3--|-3\6--5--1-3-1--|
  PM- .  .   .     .  .      .     .  .        . . .

|----------------|----------------|----------------|-------------||
|----------------|----------------|----------------|-------------||
|----------------|----------------|----------------|-------------||
|----------------|----------------|----------------|-------------||
|--0-0-0--3-5-3--|-3\6--5--1-3-1--|--0-0-0--3-5-3--|-6--5--3--0--||
|--0-0-0--3-5-3--|-3\6--5--1-3-1--|--0-0-0--3-5-3--|-6--5--3--0--||
PM-. . .                             . . . HALF MUTE--  -  -


|----------------|------------------|---------------|---------------------|
|----------------|------------------|---------------|---------------------|
|----------------|------3--2--------|---------------|------2--0--7--5-----|
|------8------8--|------------5-----|-----7------7--|------------------7--|
|----------------|---------------6--|---------------|---------------------|
|--0-0----0-0----|--0-0-------------|-0-0----0-0----|-0-0-----------------|
PM-. .    . .       . .               . .    . .      . . -  -   -  -

|----------------|-----------------|--------------|---------------------|
|----------------|-----------------|--------------|---------------------|
|----------------|------3--2-------|--------------|------2--0--2--0-----|
|------8------8--|------------5----|-----7------7-|------------------1--|
|----------------|---------------6-|--------------|---------------------|
|--0-0----0-0----|--0-0------------|-0-0----0-0---|-0-0-----------------|
PM-. .    . .       . .              . .    . .     . .

|----------------|-------------------|---------------|--------------------|
|----------------|-------------------|---------------|--------------------|
|----------------|-------3--2--------|---------------|------2--0--7--5----|
|------8------8--|-------------5-----|------7------7-|------------------7-|
|----------------|----------------6--|---------------|--------------------|
|--0-0----0-0----|--0-0--------------|--0-0----0-0---|--0-0---------------|
PM-. .    . .       . .                 . .    . .      . . -  -  -  -

|----------------|------------------|---------------|------------------|
|----------------|------------------|---------------|------------------|
|----------------|-------3--2-------|---------------|------------------|
|------8------8--|-------------5----|------7------7-|------------------|
|----------------|----------------6-|---------------|-------6--5--3--1-|
|--0-0----0-0----|--0-0-------------|--0-0----0-0---|--0-0-------------|

|-------------------|-------------------|-------------------|-------------|
|-------------------|-------------------|-------------------|-------------|
|-------------------|-------------------|-------------------|-------------|
|-------------------|-------------------|-------------------|-------------|
|-----------5-------|-------------------|-----------5--6--5-|--3----------|
|--0--6--5-----6--5-|--0--6--5--0--3--5-|--0--6--5----------|-----5--3--0-|

|---------------|------------------|---------------|----------------|
|---------------|------------------|---------------|----------------|
|---------------|-------3--2-------|---------------|--2--0--7--5----|
|------8------8-|-------------5----|------7-----7--|--------------7-|
|---------------|----------------6-|---------------|----------------|
|--0-0----0-0---|--0-0-------------|--0-0---0-0----|----------------|

|---------------|------------------|---------------|-------------------|
|---------------|------------------|---------------|-------------------|
|---------------|-------3--2-------|---------------|-------------------|
|------8------8-|-------------5----|------7------7-|-------------------|
|---------------|----------------6-|---------------|-----5--6--5--3--1-|
|--0-0----0-0---|--0-0-------------|--0-0----0-0---|--0----------------|

|------------------|-------------------|-------------------|-------------------|
|------------------|-------------------|-------------------|-------------------|
|------------------|-------------------|-------------------|-------------------|
|------------------|-------------------|-------------------|-------------------|
|-----------5------|-------------------|-----------5-------|-----------6--5--3-|
|--0--6--5----6--5-|--0--6--5--0--3--5-|--0--6--5-----6--5-|--0--6--5--6--5--3-|

|-------------------|-------------------|-------------------|------------------|
|-------------------|-------------------|-------------------|------------------|
|-------------------|-------------------|-------------------|------------------|
|-------------------|-------------------|-------------------|------------------|
|-----------5-------|-------------------|-----------5-------|------------------|
|--0--6--5-----6--5-|--0--6--5--0--3--5-|--0--6--5-----6--5-|--0--6--5--0----0-|

|-------------|------------------|------------------|---------------|
|-------------|------------------|------------------|---------------|
|-------------|------------------|------------------|---------------|
|------3------|-----3------3h5---|-----------3------|-----3-------3-|
|-------------|------------------|------------------|---------------|
|--0-0----0-0-|--0-----0-0-------|--0-0---0-----0-0-|--0-----0-0----|

|------------------------|----------------|--------------|-------------------|
|------------------------|----------------|--------------|-------------------|
|------------------------|----------------|--------------|-------------------|
|------------------------|----------------|------3-------|-----3-------------|
|------------------------|----------------|--------------|-------------------|
|---0--0---0-0-0---3-3-3-|---3-3-3---3--0-|--0-0----0-0--|---0----0--0--3--0-|

|---------------|-------------------|----------------|---------------|
|---------------|-------------------|----------------|---------------|
|---------------|-------------------|----------------|---------------|
|---------------|-------------------|---------3------|----3----------|
|---6---5---0---|--3--0--0--6--5--0-|----------------|---------------|
|---6---5---0---|--3--0--0--6--5--0-|--0-0--0----0-0-|--0----0-0-3-0-|


And it's pretty much like that the whole way. Repeat to finish, placing certain bits in 
places.
Добавлено: 27.02.2012
Другие материалы по этой песне:

Страница создана 27.02.2012
http://primanota.ru/dir-en-grey/agitated-screams-of-maggots-chords.htm
Привет, Гость.
Предлагаем пройти революционный курс по гитаре.
Подарок от PrimaNota.Ru, забирай!