PrimaNota.ru - самый крупный в мире бесплатный архив песенных текстов, аккордов, табулатур и нот


Dios Malos - I Want It All - таба, видео

Регистрация Запомнить меня
Войти через:  Facebook Google Twitter Vk Yandex Mail.ru

Dios Malos - I Want It All - таба, видео

Печатать
Просмотров: 128
Band: Dios Malos
Song: I Want It All

1 = E     4 = D   /
2 = B     5 = A  / - Standard Tuning
3 = G     6 = E /

Lead

1:-----------------------------------------------|\
2:3/5--------------------------------------------| \
3:---4~--4-2/4\2-----------------------------7-9~|  \ Lead intro.
4:---------------5~-/9--7-9-----------5--7-9-----|  /
5:--------------------------10-7--5-7------------| /
6:-----------------------------------------------|/

Clean Lead

1:--------|\
2:--------| \
3:----7-9~|  \ Listen to the song sometime the lead guitar play this.
4:7-9-----|  /
5:--------| /
6:--------|/

Main Riff

1:------------------|\
2:------------------| \
3:------------------|  \ Just find the strumming.
4:5--5-5-5--X-X-2--2|  /
5:5--5-5-5--X-X-2--2| /
6:3--3-3-3--X-x-0--0|/

Chorus

  I On -ly
1:-----------------------------------|\
2:-----------------------------------| \
3:-----------------------------------|  \ Find the strumming, their's piano...
4:5--7--9--10--9--7---7-9--14--12--10|  /
5:5--7--9--10--9--7---7-9--14--12--10| /
6:3--5--7--8---7--5-x-5-7--12--10--8-|/

Solo

1:--------------------------------------------|\
2:--------------------------------------------| \
3:2/4~----2/4~-2-4-2----2/4~--2--4-2----------|  \ X2
4:-----5~------------5~--------------5-2-----5|  /
5:---------------------------------------5-7--| /
6:--------------------------------------------|/

That it...

\ = Slide from above
/ = Slide from below
~ = Vibrato

Simple song... I tab it real quick so there might be some error and that why there 
isn't the strumming.

Hope you like it, please comment and rate!


MangeuDePoutine@hotmail.com
Добавлено: 06.05.2012
Другие материалы по этой песне:
  • Аккорды и текст

Страница создана 06.05.2012
http://primanota.ru/dios-malos/i-want-it-all-chords.htm
Привет, Гость.
Предлагаем пройти революционный курс по гитаре.
Подарок от PrimaNota.Ru, забирай!