PrimaNota.ru - самый крупный в мире бесплатный архив песенных текстов, аккордов, табулатур и нот


Diorama - Eulogy For The Anti-romantics - таба

Регистрация Запомнить меня
Войти через:  Facebook Google Twitter Vk Yandex Mail.ru

Diorama - Eulogy For The Anti-romantics - таба

Печатать
Просмотров: 93
Song Title: Eulogy for the anti-romantics
Band: Diorama (Singapore Local Band)
Tabbed by: Sujak (Rizal)
Email: sujak04@yahoo.com.sg

Listen to the song online at: http://www.reverbnation.com/dioramaonline

Hi guys, I am tabbing a song played by a local band called Diorama.
I noticed there isnt much tabs on local songs (Singapore). Therefore,
I would like play my part by contributing whatever i can to help. This is me
giving back to the society. Report all errors to me at sujak04@yahoo.com.sg
Please note that i do not have the song with me. I listen it thru streaming and
therefore, there will be some error. 

This is a simple song to play with. Sorry but i cant find the lyrics yet. 
Here we go... 

| /  slide up
| \  slide down
| h  hammer-on
| p  pull-off
| ~  vibrato
| +  harmonic
| x  Mute note


Tuning: Standard

Intro/Verse
C, D, E, E   x 6 (use power chords and let the rest of the strings open)

Pre-Chorus
A#, C, D, D   x 3 (not sure what effect but distortion works fine)
A#, C (hold)

-----------------------------------------------
The chorus consist of 3 parts...
Chorus 1: (Round round round and.. )
G, A, E, D
G, A, E, D

Chorus 2: (This line is broken)
G, A, E, c
G, A, E, c

Outro Chorus: ( Round round round and... )
G, A, E, D
-----------------------------------------------


Repeat Intro/Verse
C, D, E, E   x 6

Repeat Pre-Chorus
A#, C, D, D   x 3 
A#, C (hold)

-----------------------------------------------
Chorus Again
Chorus 1: (Round round round and.. )
G, A, E, D
G, A, E, D

Chorus 2: (This line is broken)
G, A, E, c
G, A, E, c

Outro Chorus: ( Round round round and... )
G, A, E, D
---------------------------------------------

solo:
G,A,E,C   x4

Repeat CHorus 2
G, A, E, c
G, A, E, c

------------------------------------------------
Chorus Again
Chorus 1: (Round round round and.. )
G, A, E, D
G, A, E, D

Chorus 2: (This line is broken)
G, A, E, c
G, A, E, c

Outro Chorus: ( Round round round and... )
G, A, E, D
------------------------------------------------
Repeat Solo again until fade...
G,A,E,C   



Solo
E---------------------------------------|
B---------------------------------------|
G--4-4-4-4-2-4-4/5-5-5-5/7-7-7----------| x 2
D---------------------------------------|
A---------------------------------------|
E---------------------------------------|


E------------------------------------------------------------|
B------------------------------------------------------------|
G--4-4-4-4-4-4--2-2-2--0-0-0---------------5-5-5-5-5-5-------| 
D-----------------------------2-2-2-2-2-2--------------------|
A------------------------------------------------------------|
E------------------------------------------------------------|

this is abit out but it sounds ok anyway...
E------------------------------------------------------------|
B------------------5-----------------------------------------|
G--4-5-4-5-4-5-4-5---5-4-5-4-2-4-2-0-2-4-2-0-2---------------| 
D------------------------------------------------------------|
A------------------------------------------------------------|
E------------------------------------------------------------|

E------------------------------------------------------------|
B------------------5--------------------10--10--10-----------|
G--4-5-4-5-4-5-4-5---5-4-5-4-5/7-7-7-------------------------| 
D------------------------------------------------------------|
A------------------------------------------------------------|
E------------------------------------------------------------|

E------------------------------------------------------------|
B-8-8-8--10-10/12-12-12--10-10-10--12/13-13-13--12-12-12-12--|
G------------------------------------------------------------| 
D------------------------------------------------------------|
A------------------------------------------------------------|
E------------------------------------------------------------|

E------------------------------------------------------------|
B--10--12--13-13-13-13-13-13--12-let-ring--------------------|
G------------------------------------------------------------| 
D------------------------------------------------------------|
A------------------------------------------------------------|
E------------------------------------------------------------|

Thank You and please rate...
Добавлено: 13.05.2012
Другие материалы по этой песне:
  • Аккорды и текст

Страница создана 13.05.2012
http://primanota.ru/diorama/eulogy-for-the-anti-romantics-chords.htm
Привет, Гость.
Предлагаем пройти революционный курс по гитаре.
Подарок от PrimaNota.Ru, забирай!