PrimaNota.ru - самый крупный в мире бесплатный архив песенных текстов, аккордов, табулатур и нот


Diorama - Anti-romantis - таба, видео

Регистрация Запомнить меня
Войти через:  Facebook Google Twitter Vk Yandex Mail.ru

Diorama - Anti-romantis - таба, видео

Печатать
Просмотров: 79
-----------------------------------------------------------------------------
                             Anti-Romantis - Diorama
-----------------------------------------------------------------------------
Tabbed by:Ahmad Kamal Tohar

Tuning:Standard

Verse 1
(G)
Senja malam dingin membawa khabar 

Tentang kasih, salah erti... 
(Em)
Redupkan cahaya mentari yang menyinari 

Hatiku ini.. 
(C)
Tatkala ku mendengar... 
(G)
Sang bayu bersuara.. 
(C)
Tangisan kecil hati terluka
(D)
Menyahdukan jiwa.... 
  
Verse 2
(G)
Bila erti kasih tak kesampaian 

Menari dibuai mimpi... 
(Em)
Hilang segala puitis rindu dendam 

Tidak mungkin kembali..
(C)
Badai datang menjelma..
(G)
Ku dilanda gelora...
(C)
Diperandakan batinku 
      (D)
Zahirku tak bernyawa.. 
 
Chorus
          (G)
Ku Anti-Romantis
(Em)
Tak percaya lagi...
(C)
Ngan cinta sejati..
(D)
Dengan bidadari.
(G)
ku Anti-Romantis...
 
Verse 3
(G)
Siangku seperti malam

tanpa bintang untuk menyinari..
(Em)
Tidurku seperti lena yang 

tak ingin ku disadarkan lagi..
(C)
Hitam kini si pelangi
(G)
Gelap isi hatiku..
(C)
Jika cinta itu buta..
(D)
Buta lagi hatiku...
 


Chorus



Solo(Part 1)(Play Chorus Chords for Rhythm)
e|----------7----------10--------------------7----------10---------|
B|--8p7--8-----8p7--8------8p7--8----8p7--8-----8p7--8------8p7--8-|
G|-----------------------------------------------------------------|
D|-----------------------------------------------------------------|
A|-----------------------------------------------------------------|
E|-----------------------------------------------------------------|

e|---------------------------------|
B|----------7--7--7h8--7-----------|
G|-9--9--9----------------9--9--9--|
D|---------------------------------|
A|---------------------------------|
E|---------------------------------|

Solo(Part 2)
e|--7--7h8--7--5--3----7--7h8--7--5--3-----------------------------|
B|----------------------------------------/5--5--3--5--5/8---------|
G|-----------------------------------------------------------------|
D|-----------------------------------------------------------------|
A|-----------------------------------------------------------------|
E|-----------------------------------------------------------------|



Chorus(Play Solo Part 1 & 2)



Last Half Chorus(Play Solo Part 2)
(C)
Ngan cinta sejati..
(D)
Dengan bidadari.
(G)
ku Anti-Romantis...

Outro

e|--7--7h8--7--5--3--7--7h8--7--5--3------------------------------|
B|--------------------------------------/5--5--3--5--5/8----------|
G|----------------------------------------------------------------|
D|----------------------------------------------------------------|
A|----------------------------------------------------------------|
E|----------------------------------------------------------------|

e|----------7----------10--------------------7----------10---------|
B|--8p7--8-----8p7--8------8p7--8----8p7--8-----8p7--8------8p7--8-|
G|-----------------------------------------------------------------| x5
D|-----------------------------------------------------------------|
A|-----------------------------------------------------------------|
E|-----------------------------------------------------------------|

e|------7---------------------------------------------------------|
B|-8p7-----8p7--8--8--7--8--8-------------------------------------|
G|----------------------------------------------------------------|
D|----------------------------------------------------------------|
A|----------------------------------------------------------------|
E|----------------------------------------------------------------|


Sequence:
1. Verse 1
2. Verse 2
3. Chorus
4. Verse 3
5. Chorus
6. Solo
7. Chorus
8. Last Half Chorus
9. Outro

*********************

| p   pull-off
| /   slide up

*********************
Добавлено: 04.09.2013
Вам также может быть интересно:
Другие материалы по этой песне:
  • Аккорды и текст

Страница создана 04.09.2013
http://primanota.ru/diorama/anti-romantis-chords.htm
Привет, Гость.
Предлагаем пройти революционный курс по гитаре.
Подарок от PrimaNota.Ru, забирай!