PrimaNota.ru - самый крупный в мире бесплатный архив песенных текстов, аккордов, табулатур и нот


Dionysus - The World - таба, видео

Регистрация Запомнить меня
Войти через:  Facebook Google Twitter Vk Yandex Mail.ru

Dionysus - The World - таба, видео

Печатать
Просмотров: 119
Уроки эстрадного вокала в Санкт-Петербурге
Авторы: Mat Sinner, Tobias Lundgren, Ronny Milianowicz

Solo from "Dionysus - The World"
Transcribed by Eli Balta

I'm not sure this is 100% correct but seems pretty close, if you have any feedback please send
it to mystery(at)lastdrake(dot)com

For a video of me playing it visit http://www.youtube.com/watch?v=7Cv9eiq2C_Q

e-------9-14-9----------14-17-14------9-12-9-------12-16-12-----10-9-7-----9-7-------9--------|
B----10--------10-----14--------14---9------9----14--------13----------10------10-9----10-9-7-|
G--11---------------14--------------9----------13---------------------------------------------|
D---------------------------------------------------------------------------------------------|
A---------------------------------------------------------------------------------------------|
E---------------------------------------------------------------------------------------------|


e--14p10-14p10-10----------------------------------------------------------14-----14----------|
B-----------------14-12-10-14-12-10----------7-9br[*]-10-12-14/22-19----------17b----17b~~~~--|
G-----------------------------------13-11-----------------------------------------------------|
D---------------------------------------------------------------------------------------------|
A---------------------------------------------------------------------------------------------|
E---------------------------------------------------------------------------------------------|

[*] - bend half step and release, then a tiny dive with the whammy bar (listen to the solo)


e-21b---13-9---------------9-11-14-11-9---11-9-------------------7-8-7--------------------------|
B------------11-10-9-10-11---------------------11-10-9-8-9-10-11-------12-11-10-9---------------|
G-----------------------------------------------------------------------------------------------|
D-----------------------------------------------------------------------------------------------|
A-----------------------------------------------------------------------------------------------|
E-----------------------------------------------------------------------------------------------|

e-------9b~~-11--13--14--16--13-14~--------------------------14-16-17-20-19-18-17---------------|
B-7-9-7--------11--11--11--11------------------------14-16-17---------------------20-19-18-17---|
G--------------------------------------------13-14-16-------------------------------------------|
D-----------------------------------13-14-16----------------------------------------------------|
A-----------------------------------------------------------------------------------------------|
E-----------------------------------------------------------------------------------------------|

e-----------------------------------------------16----19-16---16--------------17---17-17-----|
B-16-15---15h17-14h(15)\12-10-10-12-14--------17--17-------17---17-------17b----17b------17--|b~[*]
G-------------------------------------------16------16------------16\11----------------------|
D-----------------------------------------18-------------------------------------------------|
A---------------------------------------19---------------------------------------------------|
E--------------------------------------------------------------------------------------------|

[*] - kindof prebend half step then release and bend again (listen to the solo for detail)

e-------------------------------------------------|
B-17-14------14-14-----14-14---------------21-19--|
G--------16b-------16b-------17-16-14--/20--------|
D-------------------------------------------------|
A-------------------------------------------------|
E-------------------------------------------------|
Добавлено: 16.06.2012
Вам также может быть интересно:
Другие материалы по этой песне:
  • Аккорды и текст

Страница создана 16.06.2012
http://primanota.ru/dionysus/the-world-chords.htm
Привет, Гость.
Предлагаем пройти революционный курс по гитаре.
Подарок от PrimaNota.Ru, забирай!