PrimaNota.ru - самый крупный в мире бесплатный архив песенных текстов, аккордов, табулатур и нот


Dionne Warwick - Do You Know The Way - аккорды и текст, таба, видео

Регистрация Запомнить меня
Войти через:  Facebook Google Twitter Vk Yandex Mail.ru

Dionne Warwick - Do You Know The Way - аккорды и текст, таба, видео

Печатать
Просмотров: 126
Уроки эстрадного вокала в Санкт-Петербурге
Do You Know The Way
Dionne Warwick
		   "C You Know the Way To San Jose"
                      (Burt Bacharach - Hal David)

Intro [2X]:

	bass:

	 v   v   v   v
	-----------------
	-----------------
	-3---3---3---3---
	-----------------
	
	(backing vocals arr. for guitar):

	(C)
	 v   v   v   v     v   v   v   v     v
	12--10---8-7---5-|---3---1---------|---
	-----------------|---------5---3---|-5-
	12--10---9-7---5-|---4---2---------|---
	-----------------|---------5---3---|-5-
	-----------------|-----------------|---
	-----------------|-----------------|---
	(Wo wo  wo-wo wo    wo  wo-wo  wo    wo)

Verse 1:

	C               F6
	C you know the ...
	C                 Gsus4            G
	I've been away so long, ...
	C               F6
	C you know the ...
	C                 Gsus4               G
	I'm going back to find ...

Chorus 1:

	Em7        Am7
	L.A is a great ...
	Em7           Am7            Em7
	Put a hundred ....
	C#m7-5          Dm7/C                    G/B
	In a week, maybe two, ....
	Dm7              G                         [N.C.; organ fills and
	Weeks turn into years...bass continue]
		bass (w/bass drum):

	 v   v   v   v
	-----------------
	-----------------
	-----------------
	-----3---3---3---

Verse 2:

	Chorus 2:

	Break:

	 C                F6                  C
	I've got lots of friends ....)
	 C              F6                C
	C you know the way ....

	[instrumental; key changes to Db]

	Db7M   Dbmaj9  Gb6           [2X]
	   /  /  /  /   /  /  /  /

	bass:

	Ab6 [N.C.]
	 v   v   v   v     v   v   v   v
	-----------------|-----------------
	-----------------|-----------------
	-----------------|-----------------
	-4-------4-------|-4-------4-4-3-2-

[repeat chorus 1 in Db]

	Fm7       Bbm7
	L.A is a great ...
	Fm7           Bbm7           Fm7
	Put a hundred down ...
	Dm7-5          Ebm7/Db                   Ab/C
	In a week, maybe two, ....
	Ebm7             Ab                        [N.C.; organ fills and
	Weeks turn into years....

	bass (w/bass drum):

	 v   v   v   v
	-----------------
	-----------------
	-----------------
	-----4---4---4---

Coda:

	 Db               Gb6                 Db
	I've got lots of friends ...
	Db              Gb6              Db
	C you know the way ...
	 Db               Gb6               Db
	Can't wait to get ...

[repeat intro in Db to fade]

	bass:

	 v   v   v   v
	-----------------
	-----------------
	-4---4---4---4---
	-----------------
	(wo)
	
	(backing vocals arr. for guitar):

	(Db)
	 v   v   v   v     v   v   v   v     v
	13--11---9-8---6-|---4---2---------|---
	-----------------|---------6---4---|-6-
	13--11--10-8---6-|---5---3---------|---
	-----------------|---------6---4---|-6-
	-----------------|-----------------|--- 
	-----------------|-----------------|--- 
	(Wo wo  wo-wo ....


-- another ace 60's tab from Andrew Rogers
     
Добавлено: 15.10.2013
Другие материалы по этой песне:
  • Аккорды и текст

Страница создана 19.03.2012
http://primanota.ru/dionne-warwick/do-you-know-the-way-chords.htm
Привет, Гость.
Предлагаем пройти революционный курс по гитаре.
Подарок от PrimaNota.Ru, забирай!