PrimaNota.ru - самый крупный в мире бесплатный архив песенных текстов, аккордов, табулатур и нот


Dionisio Aguado - Estudio - таба, видео

Регистрация Запомнить меня
Войти через:  Facebook Google Twitter Vk Yandex Mail.ru

Dionisio Aguado - Estudio - таба, видео

Печатать
Просмотров: 152
E-|---Song:-Estudio-in-G---------------------------|
A-|---Composer:-Dionisio-Aguado--------------------|
D-|---Transcription-by:Christian Liang-------------|
G-|---E-Mail:christian.liang@gmail.com-------------|   
B-|---http://www.classclef.com---------------------|
E-|---Enjoy!---------------------------------------|

==========================================================================
              Estudio in G by Dionisio Aguado (1784-1849)
==========================================================================

Key Signature: G Major
Time Signature: 3/8
Grade 2: Early Intermediate
Hold/Suspend notes as long as possible.

--------
 Part 1
--------

[1]
e||------------------------|---------------------0---|
B||----------------0-----1-|-3-----------------------|
G||*-----------------------|---------0---------------|
D||*-----------------------|-------------------------|
A||------------------------|-2-------------------1---|
E||------------------------|-------------------------|
   | | | | | | | | | | | |   | | | | | | | | | | | |  
   |       |       |         |       |       |

R                  m     i   m       i           a
                             p                   p

L                        1   4                   1
                             2

[3]
e|-------------------------|---------------------0---|
B|-3---------------0-----1-|-3-----------------------|
G|---------0---------------|---------0---------------|
D|-------------------------|-------------------------|
A|-2-----------------------|-2-------------------1---|
E|-------------------------|-------------------------|
   | | | | | | | | | | | |   | | | | | | | | | | | |  
   |       |       |         |       |       |
R  m       i       m     i   m       i           a
   p                         p                   p

L  4                         4                   1
   2                         2

[5]
e|-----------------0-------|-------------------------|
B|-3---------------------3-|-1---------------3-----1-|
G|-------------------------|---------2---------------|
D|-------------------------|---------0---------------|
A|-2-----------------------|-------------------------|
E|-------------------------|-2-----------------------|
   | | | | | | | | | | | |   | | | | | | | | | | | |  
   |       |       |         |       |       |

R  m               a     m   a       m       a     m
   p                         p       i

L  4                     4   1       3       4     1
   3                         2

[7]
e|-----------------0-------|-----------------2-------|
B|-0---------------------3-|-1---------------1-------|
G|---------0---------------|---------2---------------|
D|-------------------------|-----------------0-------|
A|-------------------------|-0-------3---------------|
E|-3-----------------------|-------------------------|
   | | | | | | | | | | | |   | | | | | | | | | | | |  
   |       |       |         |       |       |
R  m       i       a     i   m       i       a
   p                         p       p       m
                                             p

L  3                         1       2       2
                                     3       1

[9]
e|-3----------------------||
B|-0----------------------||
G|-0---------------------*||
D|-----------------------*||
A|------------------------||
E|------------------------||
   | | | | | | | | | | | |   
   |       |       |      
R  a
   m
   i

L  3

--------
 Part 2
--------

[10]
e||----------------2-----3-|-5-----------------------|
B||------------------------|-----------------1-------|
G||*-----------------------|-----------------2-------|
D||*-----------------------|---------0---------------|
A||------------------------|-------------------------|
E||------------------------|-------------------------|
   | | | | | | | | | | | |   | | | | | | | | | | | |  
   |       |       |         |       |       |
R                  i     m   i       p       m
                                             i
 
L                  1     2   4               1
                                             3

[12]
e|-----------------2-----3-|-5-----------------------|
B|-0-----------------------|-----------------1-------|
G|-0-----------------------|-----------------2-------|
D|-------------------------|---------0---------------|
A|-------------------------|-------------------------|
E|---------3---------------|-------------------------|
   | | | | | | | | | | | |   | | | | | | | | | | | |  
   |       |       |         |       |       |
R  m       p       a     m   a       p       m
   i                                         i

L          3       1     2   4               1
                                             3

[14]
e|-------------------------|-------------------------|
B|-1---p---0-------0-----1-|-3---------------0-------|
G|-0-----------------------|---------0---------------|
D|-------------------------|-3-----------------------|
A|-------------------------|-------------------------|
E|-------------------------|-------------------------|
   | | | | | | | | | | | |   | | | | | | | | | | | |  
   |       |       |         |       |       |
R  m               m     i   m       i       m
   p                         p

L  1                     1   4
                             3

[16]
e|-----------------3-------|-----------------2-------|
B|-1-----------------------|---------0-------1-------|
G|---------0---------------|-----------------2-------|
D|-2-----------------------|-0-----------------------|
A|-------------------------|-------------------------|
E|-------------------------|-------------------------|
   | | | | | | | | | | | |   | | | | | | | | | | | |  
   |       |       |         |       |       |
R  m       i       a         p       m       a
   p                                         m
                                             i

L  1               4                         3
   2                                         1
                                             2

[18]
e|-3----------------------||
B|-0----------------------||
G|-0---------------------*||
D|-----------------------*||
A|------------------------||
E|---------3--------------||
   | | | | | | | | | | | |  
   |       |       |       
R  a       p
   m
   i

L  4       2


Добавлено: 05.05.2012
Другие материалы по этой песне:

Страница создана 28.04.2012
http://primanota.ru/dionisio-aguado/estudio-chords.htm
Привет, Гость.
Предлагаем пройти революционный курс по гитаре.
Подарок от PrimaNota.Ru, забирай!