PrimaNota.ru - самый крупный в мире бесплатный архив песенных текстов, аккордов, табулатур и нот


Dinosaur Pile-up - Traynor - таба, видео

Регистрация Запомнить меня
Войти через:  Facebook Google Twitter Vk Yandex Mail.ru

Dinosaur Pile-up - Traynor - таба, видео

Печатать
Просмотров: 166
Уроки эстрадного вокала в Санкт-Петербурге
Авторы: Matt Bigland

Artist: Dinosaur Pile Up
Album: Growing Pains
Song: Traynor

To achieve the guitar sound in this song, play it with heavy distortion throughout.

For anyone who wonders, Matt Bigland uses a big Muff pedal with lots of sustain.

Tuning: Drop D

Main Riff: Intro, Chorus
e|----|-----------------------------------------------|
B|----|-----------------------------------------------|
G|----|----------1010101010101010---------------------| Play this
D|x-x-|555555555-1010101010101010-88888888-00000000---|   twice
A|x-x-|555555555-8-8-8-8-8-8-8-8--88888888-00000000---|
D|x-x-|555555555------------------88888888-00000000---|

Verse
e|-------------------------------------------------------|
B|-------------------------------------------------------|
G|-----------10-1010101010101010------------7-77777777---|
D|5555555555-10-1010101010101010-8-88888888-7-77777777---|
A|5555555555-8--8-8-8-8-8-8-8-8--8-88888888-5-55555555---|
D|5555555555---------------------8-88888888--------------|
  |--------|    |--------------|   |------|   |----------|
      PM              PM              PM         PM

e|--------------------------------------------------------------|
B|--------------------------------------------------------------|
G|------------10-10101010-10/12~~-------------------------------|
D|5-555555555-10-10101010-10/12~~-88888888-10-1212121212121212--|
A|5-555555555-8--8-8-8-8--8-/10~~-88888888-10-1212121212121212--|
D|5-555555555---------------------88888888-10-1212121212121212--|
   |--------|    |------------|   |-----------------------------|
      PM              PM             PM
e|--------------------------------------------------|
B|--------------------------------------------------|
G|-----------101010101010101010-----------777777777-|
D|5555555555-101010101010101010-888888888-777777777-|
A|5555555555-8-8-8-8-8-8-8-8-8--888888888-555555555-|
D|5555555555--------------------888888888-----------|

e|----------------------------------------------------------|
B|----------------------------------------------------------|
G|-----------1010101010-10/12~~-----------------------------|
D|5555555555-1010101010-10/12~~-88888888-10-1212121212121212|
A|5555555555-8-8-8-8-8--8-/10~~-88888888-10-1212121212121212|
D|5555555555--------------------88888888-10-1212121212121212|


Main Riff Second time
e|---------------------------------------------|
B|---------------------------------------------|
G|----------1010101010101010-------------------| Play this
D|555555555-1010101010101010-88888888-00000000-|   Once
A|555555555-8-8-8-8-8-8-8-8--88888888-00000000-|
D|555555555------------------88888888-00000000-|

On the second time this is played at this time it is altered in the end slightly if you 
listen carefully:

e|----------------------------------------------------|
B|----------------------------------------------------|
G|----------1010101010101010--------------------------|
D|555555555-1010101010101010-88888888-000-1010-0-10-0-|
A|555555555-8-8-8-8-8-8-8-8--88888888-000-8-8--0-8--0-|
D|555555555------------------88888888-000-0-0--0-0--0-|

Verse x1 here

Riff
e|-----------------|-----------------|
B|-----------------|-----------------|
G|-----------------|-----------------| Play this        On the second bar let the first
D|5-345345345345345|5-345345345345345|   twice    and third fifth fret chord ring
A|5-345345345345345|5-345345345345345|
D|5-345345345345345|5-345345345345345|
    |-------------|   |---| |-------|
          PM            PM     PM

e|-----------------|-----------------|
B|-----------------|-----------------|
G|-----------------|-----------------| Play this        On the second bar let the first
D|5-345345345345345|5-345345345345345|   twice    and third fifth fret chord ring
A|5-345345345345345|5-345345345345345|
D|5-345345345345345|5-345345345345345|

Second Riff

e|-------------------------|-----------------|
B|-------------------------|-----------------|
G|-------------------------|-----------------| Play this
D|88888888-1212121212121212|5-345345345345345|   four
A|88888888-1212121212121212|5-345345345345345|    times
D|88888888-1212121212121212|5-345345345345345|

On the 4th time you play the riff above, play the riff at the end that is below

e|-----------------|        e|-----------------|
B|-----------------|        B|-----------------|
G|-----------------| Drum   G|-----------------| Play this
D|5-345345345345345| Pause  D|5-345345345345345|  8 times
A|5-345345345345345|        A|5-345345345345345|
D|5-345345345345345|        D|5-345345345345345|
  |---------------|
          PM

End

e|-----------------|
B|-----------------|
G|-----------------| Do some pick scrapes at the end to get his ending feel.
D|5~~~~~~~~--------|
A|5~~~~~~~~--------|
D|5~~~~~~~~--------|

Please rate and if you have any comments or queries please email me at thomm016@hotmail.co.uk

Thanks

************************************

| /   slide up
| \   slide down
| h   hammer-on
| p   pull-off
| ~   vibrato
| +   harmonic
| x   Mute note
| b   Bend
| pb  Pre-bend
| br  Bend release
| pbr Pre-bend release
| brb Bend release bend

************************************
Добавлено: 22.05.2012
Другие материалы по этой песне:
  • Аккорды и текст

Страница создана 22.05.2012
http://primanota.ru/dinosaur-pile-up/traynor-chords.htm
Привет, Гость.
Предлагаем пройти революционный курс по гитаре.
Подарок от PrimaNota.Ru, забирай!