PrimaNota.ru - самый крупный в мире бесплатный архив песенных текстов, аккордов, табулатур и нот


Dinosaur Pile-up - Never That Together - таба, видео

Регистрация Запомнить меня
Войти через:  Facebook Google Twitter Vk Yandex Mail.ru

Dinosaur Pile-up - Never That Together - таба, видео

Печатать
Просмотров: 141
Авторы: Matt Bigland

Never That Together by Dinosaur Pile-up - From the album Growing Pains

"How I love you....
e--0-0-0-0------------------0-0-0-0----------------------------------|
b--5-4-2p0------------------5-4-2p0----------------------------------|
g--------------------------------------------------------------------|
d-----------2-2-s-7-7-s-2------------2-2-s-7-7-s-2-------------------|
a-----------2-2-s-7-7-s-2------------2-2-s-7-7-s-2-------------------|
d-----------2-2-s-7-7-s-2------------2-2-s-7-7-s-2-------------------|


"That we're just never.."
e--0-0-0-------------------------------------------------------------|
b--5-4-5-------------------------------------------------------------|
g--------------------------------------------------------------------|
d---------7-7-7-7-10-10-10-10-10-10-10-10-2-2-s-7-7-s-2--------------|
a---------7-7-7-7-10-10-10-10-10-10-10-10-2-2-s-7-7-s-2--------------|
d---------7-7-7-7-10-10-10-10-10-10-10-10-2-2-s-7-7-s-2--------------|

"When I'm at home..."
e--0-0-0-0------------------0-0-0-0----------------------------------|
b--5-4-2p0------------------5-4-2p0----------------------------------|
g--------------------------------------------------------------------|
d-----------2-2-s-7-7-s-2------------2-2-s-7-7-s-2-------------------|
a-----------2-2-s-7-7-s-2------------2-2-s-7-7-s-2-------------------|
d-----------2-2-s-7-7-s-2------------2-2-s-7-7-s-2-------------------|

"My heart is heavy...."
e--0-0-0-------------------------------------------------------------|
b--5-4-5------------------------------------------------5^-----------|
g-------------------------------------------------------5^-----------|
d---------7-7-7-7-10-10-10-10-10-10-10-10-2-2-s-7-7-s-2-5^-----------|
a---------7-7-7-7-10-10-10-10-10-10-10-10-2-2-s-7-7-s-2--------------|
d---------7-7-7-7-10-10-10-10-10-10-10-10-2-2-s-7-7-s-2--------------|

Chorus

"I'm - I'm on time....."
e--------------------------------------------------------------------|
b--------------------------------------------------------------------|
g--------------------------------------------------------------------|
d--2-2-2-2-2-2-2-2--7-7-7-7-7-7-7-7--10-10-10-10--5-5-5-5------------|
a--2-2-2-2-2-2-2-2--7-7-7-7-7-7-7-7--10-10-10-10--5-5-5-5------------|
d--2-2-2-2-2-2-2-2--7-7-7-7-7-7-7-7--10-10-10-10--5-5-5-5------------|

"I'm alright, but only..."
e--------------------------------------------------------------------|
b--------------------------------------------------------------------|
g--------------------------------------------------------------------|
d--2-2-2-2-2-2-2-2--7-7-7-7-7-7-7-7--10-10-10-10--5-5-5-5------------|
a--2-2-2-2-2-2-2-2--7-7-7-7-7-7-7-7--10-10-10-10--5-5-5-5------------|
d--2-2-2-2-2-2-2-2--7-7-7-7-7-7-7-7--10-10-10-10--5-5-5-5------------|

"You're so kind, hurt me..."
e--------------------------------------------------------------------|
b--------------------------------------------------------------------|
g--------------------------------------------------------------------|
d--2-2-2-2-2-2-2-2--7-7-7-7-7-7-7-7--10-10-10-10--5-5-5-5------------|
a--2-2-2-2-2-2-2-2--7-7-7-7-7-7-7-7--10-10-10-10--5-5-5-5------------|
d--2-2-2-2-2-2-2-2--7-7-7-7-7-7-7-7--10-10-10-10--5-5-5-5------------|

"On my life...."
e--------------------------------------------------------------------|
b--------------------------------------------------------------------|
g--------------------------------------------------------------------|
d--2-2-2-2-2-2-2-2--7-7-7-7-7-7-7-7--10-10-10-10--5-5-5-5------------|
a--2-2-2-2-2-2-2-2--7-7-7-7-7-7-7-7--10-10-10-10--5-5-5-5------------|
d--2-2-2-2-2-2-2-2--7-7-7-7-7-7-7-7--10-10-10-10--5-5-5-5------------|


"But only you..."
e------------------0-0-0-0---------------------0-0-0-0---------------|
b------------------5-4-2p0---------------------5-4-2p0---------------|
g--------------------------------------------------------------------|
d--2-2-s-7-7-s-2------------2-2-s-7-7-s-2--------------2-2-s-7-7-s-2-|
a--2-2-s-7-7-s-2------------2-2-s-7-7-s-2--------------2-2-s-7-7-s-2-|
d--2-2-s-7-7-s-2------------2-2-s-7-7-s-2--------------2-2-s-7-7-s-2-|

"That we're just never..."
e--0-0-0-------------------------------------------------------------|
b--5-4-5-------------------------------------------------------------|
g--------------------------------------------------------------------|
d---------7-7-7-7-10-10-10-10-10-10-10-10-2-2-s-7-7-s-2--------------|
a---------7-7-7-7-10-10-10-10-10-10-10-10-2-2-s-7-7-s-2--------------|
d---------7-7-7-7-10-10-10-10-10-10-10-10-2-2-s-7-7-s-2--------------|

"My pretty cogs turn around.."
e--0-0-0-0------------------0-0-0-0----------------------------------|
b--5-4-2p0------------------5-4-2p0----------------------------------|
g--------------------------------------------------------------------|
d-----------2-2-s-7-7-s-2------------2-2-s-7-7-s-2-------------------|
a-----------2-2-s-7-7-s-2------------2-2-s-7-7-s-2-------------------|
d-----------2-2-s-7-7-s-2------------2-2-s-7-7-s-2-------------------|

"My mother tell me..."
e--0-0-0-------------------------------------------------------------|
b--5-4-5-------------------------------------------------------------|
g--------------------------------------------------------------------|
d---------7-7-7-7-10-10-10-10-10-10-10-10-2-2-s-7-7-s-2--------------|
a---------7-7-7-7-10-10-10-10-10-10-10-10-2-2-s-7-7-s-2--------------|
d---------7-7-7-7-10-10-10-10-10-10-10-10-2-2-s-7-7-s-2--------------|

Chorus

"I'm - I'm on time..."
e--------------------------------------------------------------------|
b--------------------------------------------------------------------|
g--------------------------------------------------------------------|
d--2-2-2-2-2-2-2-2--7-7-7-7-7-7-7-7--10-10-10-10--5-5-5-5------------|
a--2-2-2-2-2-2-2-2--7-7-7-7-7-7-7-7--10-10-10-10--5-5-5-5------------|
d--2-2-2-2-2-2-2-2--7-7-7-7-7-7-7-7--10-10-10-10--5-5-5-5------------|

"I'm alright...."
e--------------------------------------------------------------------|
b--------------------------------------------------------------------|
g--------------------------------------------------------------------|
d--2-2-2-2-2-2-2-2--7-7-7-7-7-7-7-7--10-10-10-10--5-5-5-5------------|
a--2-2-2-2-2-2-2-2--7-7-7-7-7-7-7-7--10-10-10-10--5-5-5-5------------|
d--2-2-2-2-2-2-2-2--7-7-7-7-7-7-7-7--10-10-10-10--5-5-5-5------------|

"You're so kind..."
e--------------------------------------------------------------------|
b--------------------------------------------------------------------|
g--------------------------------------------------------------------|
d--2-2-2-2-2-2-2-2--7-7-7-7-7-7-7-7--10-10-10-10--5-5-5-5------------|
a--2-2-2-2-2-2-2-2--7-7-7-7-7-7-7-7--10-10-10-10--5-5-5-5------------|
d--2-2-2-2-2-2-2-2--7-7-7-7-7-7-7-7--10-10-10-10--5-5-5-5------------|

"On my life...."
e--------------------------------------------------------------------|
b--------------------------------------------------------------------|
g--------------------------------------------------------------------|
d--2-2-2-2-2-2-2-2--7-7-7-7-7-7-7-7--10-10-10-10--5-5-5-5------------|
a--2-2-2-2-2-2-2-2--7-7-7-7-7-7-7-7--10-10-10-10--5-5-5-5------------|
d--2-2-2-2-2-2-2-2--7-7-7-7-7-7-7-7--10-10-10-10--5-5-5-5------------|

But only you..."
e--------------------------------------------------------------------|
b--------------------------------------------------------------------|
g--------------------------------------------------------------------|
d-2-2-s-7-7-s-2--0~--------------------------------------------------|
a-2-2-s-7-7-s-2--0~--------------------------------------------------|
d-2-2-s-7-7-s-2--0~--------------------------------------------------|

Bridge

"I have only eyes for you.."
e--------------------------------------------------------------------|
b--------------------------------------------------------------------|
g--------------------------------------------------------------------|
d--2-2--5--7-7--6--5-5--7--9-9-9-9-----------------------------------|
a--2-2--5--7-7--6--5-5--7--9-9-9-9-----------------------------------|
d--2-2--5--7-7--6--5-5--7--9-9-9-9-----------------------------------|


"I have only eyes for you.."
e--------------------------------------------------------------------|
b--------------------------------------------------------------------|
g--------------------------------------------------------------------|
d--2-2--5--7-7--6--5-5--7--9-9-9-9-----------------------------------|
a--2-2--5--7-7--6--5-5--7--9-9-9-9-----------------------------------|
d--2-2--5--7-7--6--5-5--7--9-9-9-9-----------------------------------|


"I have only eyes for you.."
e--------------------------------------------------------------------|
b--------------------------------------------------------------------|
g--------------------------------------------------------------------|
d--2-2-2--5--7-7-7--6--5-5-5--7--9-9-9-9-----------------------------|
a--2-2-2--5--7-7-7--6--5-5-5--7--9-9-9-9-----------------------------|
d--2-2--2-5--7-7-7--6--5-5-5--7--9-9-9-9-----------------------------|


"I have only eyes for you.."
e--------------------------------------------------------------------|
b--------------------------------------------------------------------|
g--------------------------------------------------------------------|
d--2-2-2--5--7-7-7--6--5-5-5--7--9-9-9-9-----------------------------|
a--2-2-2--5--7-7-7--6--5-5-5--7--9-9-9-9-----------------------------|
d--2-2-2--5--7-7-7--6--5-5-5--7--9-9-9-9-----------------------------|

Chorus

"I'm - I'm on time...."
e--------------------------------------------------------------------|
b--------------------------------------------------------------------|
g--------------------------------------------------------------------|
d--2-2-2-2-2-2-2-2--7-7-7-7-7-7-7-7--10-10-10-10--5-5-5-5------------|
a--2-2-2-2-2-2-2-2--7-7-7-7-7-7-7-7--10-10-10-10--5-5-5-5------------|
d--2-2-2-2-2-2-2-2--7-7-7-7-7-7-7-7--10-10-10-10--5-5-5-5------------|

"I'm alright....."
e--------------------------------------------------------------------|
b--------------------------------------------------------------------|
g--------------------------------------------------------------------|
d--2-2-2-2-2-2-2-2--7-7-7-7-7-7-7-7--10-10-10-10--5-5-5-5------------|
a--2-2-2-2-2-2-2-2--7-7-7-7-7-7-7-7--10-10-10-10--5-5-5-5------------|
d--2-2-2-2-2-2-2-2--7-7-7-7-7-7-7-7--10-10-10-10--5-5-5-5------------|

"You're kind....."
e--------------------------------------------------------------------|
b--------------------------------------------------------------------|
g--------------------------------------------------------------------|
d--2-2-2-2-2-2-2-2--7-7-7-7-7-7-7-7--10-10-10-10--5-5-5-5------------|
a--2-2-2-2-2-2-2-2--7-7-7-7-7-7-7-7--10-10-10-10--5-5-5-5------------|
d--2-2-2-2-2-2-2-2--7-7-7-7-7-7-7-7--10-10-10-10--5-5-5-5------------|

"On my life...."
e--------------------------------------------------------------------|
b--------------------------------------------------------------------|
g--------------------------------------------------------------------|
d--2-2-2-2-2-2-2-2--7-7-7-7-7-7-7-7--10-10-10-10--5-5-5-5------------|
a--2-2-2-2-2-2-2-2--7-7-7-7-7-7-7-7--10-10-10-10--5-5-5-5------------|
d--2-2-2-2-2-2-2-2--7-7-7-7-7-7-7-7--10-10-10-10--5-5-5-5------------|

"But only you"
e--------------------------------------------------------------------|
b--------------------------------------------------------------------|
g--------------------------------------------------------------------|
d--2-2-s-7-7-s-2-----------------------------------------------------|
a--2-2-s-7-7-s-2-----------------------------------------------------|
d--2-2-s-7-7-s-2-----------------------------------------------------|
Добавлено: 20.07.2012
Другие материалы по этой песне:
  • Аккорды и текст

Страница создана 20.07.2012
http://primanota.ru/dinosaur-pile-up/never-that-together-chords.htm
Привет, Гость.
Предлагаем пройти революционный курс по гитаре.
Подарок от PrimaNota.Ru, забирай!