PrimaNota.ru - самый крупный в мире бесплатный архив песенных текстов, аккордов, табулатур и нот


Dinosaur Pile-up - Mona Lisa - таба, видео

Регистрация Запомнить меня
Войти через:  Facebook Google Twitter Vk Yandex Mail.ru

Dinosaur Pile-up - Mona Lisa - таба, видео

Печатать
Просмотров: 212
Уроки эстрадного вокала в Санкт-Петербурге
Авторы: Matt Bigland

Mona Lisa by Dinosaur Pile Up - From the album Growing Pains

The strumming is hard to transcribe and its best to listen to song
to pick up the pattern.

"Hello, I left a message..."
e-------------------------------------------------------|
b-------------------------------------------------------|
g-------------------------------------------------------|
d--2-2-x-x-x-2-2-2--7-7-7-7--2-2-2-x-x-x-2-2-2--7-7-7-7-|
a--2-2-x-x-x-2-2-2--7-7-7-7--2-2-2-x-x-x-2-2-2--7-7-7-7-|
d--2-2-x-x-x-2-2-2--7-7-7-7--2-2-2-x-x-x-2-2-2--7-7-7-7-|

"I'm on the edge...."
e---------------------------------|
b---------------------------------|
g---------------------------------|
d--4-4-4-4-4-4-3-3-3--10-10-10-10-|
a--4-4-4-4-4-4-3-3-3--10-10-10-10-|
d--4-4-4-4-4-4-3-3-3--10-10-10-10-|

"I don't mind cos...."
e-------------------------------------------------------|
b-------------------------------------------------------|
g-------------------------------------------------------|
d--2-2-x-x-x-2-2-2--7-7-7-7--2-2-2-x-x-x-2-2-2--7-7-7-7-|
a--2-2-x-x-x-2-2-2--7-7-7-7--2-2-2-x-x-x-2-2-2--7-7-7-7-|
d--2-2-x-x-x-2-2-2--7-7-7-7--2-2-2-x-x-x-2-2-2--7-7-7-7-|

"It's OK least....."
e----------------------------------|
b----------------------------------|
g----------------------------------|
d--4-4-4-4-4-4-3-3-3--10-10-10-10~-|
a--4-4-4-4-4-4-3-3-3--10-10-10-10~-|
d--4-4-4-4-4-4-3-3-3--10-10-10-10~-|

"Come on and move out.."
e-------------------------------------------------------|
b-------------------------------------------------------|
g-------------------------------------------------------|
d--2-2-x-x-x-2-2-2--7-7-7-7--2-2-2-x-x-x-2-2-2--7-7-7-7-|
a--2-2-x-x-x-2-2-2--7-7-7-7--2-2-2-x-x-x-2-2-2--7-7-7-7-|
d--2-2-x-x-x-2-2-2--7-7-7-7--2-2-2-x-x-x-2-2-2--7-7-7-7-|

"same old roof for far too long"
e---------------------------------|
b---------------------------------|
g---------------------------------|
d--4-4-4-4-4-4-3-3-3--10-10-10-10-|
a--4-4-4-4-4-4-3-3-3--10-10-10-10-|
d--4-4-4-4-4-4-3-3-3--10-10-10-10-|

"I don't know...."
e-------------------------------------------------------|
b-------------------------------------------------------|
g-------------------------------------------------------|
d--2-2-x-x-x-2-2-2--7-7-7-7--2-2-2-x-x-x-2-2-2--7-7-7-7-|
a--2-2-x-x-x-2-2-2--7-7-7-7--2-2-2-x-x-x-2-2-2--7-7-7-7-|
d--2-2-x-x-x-2-2-2--7-7-7-7--2-2-2-x-x-x-2-2-2--7-7-7-7-|

"God knows i've tried..."
e---------------------------------|
b---------------------------------|
g---------------------------------|
d--4-4-4-4-4-4-3-3-3--10-10-10-10-|
a--4-4-4-4-4-4-3-3-3--10-10-10-10-|
d--4-4-4-4-4-4-3-3-3--10-10-10-10-|

"Work it out...."
e----------------------------------------|
b----------------------------------------|
g----------------------------------------|
d--4-4-4-4-4--3-3-3-3-3-3-3--2-2-2-2-2-3-|
a--4-4-4-4-4--3-3-3-3-3-3-3--2-2-2-2-2-3-|
d--4-4-4-4-4--3-3-3-3-3-3-3--2-2-2-2-2-3-|
repeat this through 3 times
then:

"Mona Lisa..."
e---------------------------|
b---------------------------|
g---------------------------|
d--4-4-4-4-4-4--3-3-3-3-3-3-|
a--4-4-4-4-4-4--3-3-3-3-3-3-|
d--4-4-4-4-4-4--3-3-3-3-3-3-|

"When I look around..."
e---------------------------------------------------------|
b---------------------------------------------------------|
g---------------------------------------------------------|
d--2-2-2-2-2-5-7-7-7-7-7-5-10-10-10-10-10-5-7-7-7-7-7-9-9-|
a--2-2-2-2-2-5-7-7-7-7-7-5-10-10-10-10-10-5-7-7-7-7-7-9-9-|
d--2-2-2-2-2-5-7-7-7-7-7-5-10-10-10-10-10-5-7-7-7-7-7-9-9-|
repeat this through twice
then:

"When I look around outside..."
e-------------------------------------------------------------------------|
b-------------------------------------------------------------------------|
g-------------------------------------------------------------------------|
d--2-2-2-2-2-s-7-s-5-5-5-5-5-s-10-s-7-7-7-7-7-s-12-s-10-10-10-10-10-12-12-|
a--2-2-2-2-2-s-7-s-5-5-5-5-5-s-10-s-7-7-7-7-7-s-12-s-10-10-10-10-10-12-12-|
d--2-2-2-2-2-s-7-s-5-5-5-5-5-s-10-s-7-7-7-7-7-s-12-s-10-10-10-10-10-12-12-|
play this once through
then:

"and If I'm old..."
e---------------------------------------------------------|
b---------------------------------------------------------|
g---------------------------------------------------------|
d--2-2-2-2-2-5-7-7-7-7-7-5-10-10-10-10-10-5-7-7-7-7-7-9-9-|
a--2-2-2-2-2-5-7-7-7-7-7-5-10-10-10-10-10-5-7-7-7-7-7-9-9-|
d--2-2-2-2-2-5-7-7-7-7-7-5-10-10-10-10-10-5-7-7-7-7-7-9-9-|

"Work it out..."
e---------------------------------------------------|
b---------------------------------------------------|
g---------------------------------------------------|
d--7-9-9-7-9-9-7-9----------------------------------|
a--7-9-9-7-9-9-7-9----------------------------------|keep strumming on the last chord
d--7-9-9-7-9-9-7-9----------------------------------|

"Listen up...."
e-------------------------------------------------------|
b-------------------------------------------------------|
g-------------------------------------------------------|
d--2-2-x-x-x-2-2-2--7-7-7-7--2-2-2-x-x-x-2-2-2--7-7-7-7-|
a--2-2-x-x-x-2-2-2--7-7-7-7--2-2-2-x-x-x-2-2-2--7-7-7-7-|
d--2-2-x-x-x-2-2-2--7-7-7-7--2-2-2-x-x-x-2-2-2--7-7-7-7-|

"Everythin's so up..."
e---------------------------------|
b---------------------------------|
g---------------------------------|
d--4-4-4-4-4-4-3-3-3--10-10-10-10-|
a--4-4-4-4-4-4-3-3-3--10-10-10-10-|
d--4-4-4-4-4-4-3-3-3--10-10-10-10-|

"Give me a..."
e-------------------------------------------------------|
b-------------------------------------------------------|
g-------------------------------------------------------|
d--2-2-x-x-x-2-2-2--7-7-7-7--2-2-2-x-x-x-2-2-2--7-7-7-7-|
a--2-2-x-x-x-2-2-2--7-7-7-7--2-2-2-x-x-x-2-2-2--7-7-7-7-|
d--2-2-x-x-x-2-2-2--7-7-7-7--2-2-2-x-x-x-2-2-2--7-7-7-7-|

"And all the yuppies"
e---------------------------------|
b---------------------------------|
g---------------------------------|
d--4-4-4-4-4-4-3-3-3--10-10-10-10-|
a--4-4-4-4-4-4-3-3-3--10-10-10-10-|
d--4-4-4-4-4-4-3-3-3--10-10-10-10-|

"Work it out..."
e----------------------------------------|
b----------------------------------------|
g----------------------------------------|
d--4-4-4-4-4--3-3-3-3-3-3-3--2-2-2-2-2-3-|
a--4-4-4-4-4--3-3-3-3-3-3-3--2-2-2-2-2-3-|
d--4-4-4-4-4--3-3-3-3-3-3-3--2-2-2-2-2-3-|
repeat this through 3 times
then:

"Mona Lisa..."
e---------------------------|
b---------------------------|
g---------------------------|
d--4-4-4-4-4-4--3-3-3-3-3-3-|
a--4-4-4-4-4-4--3-3-3-3-3-3-|
d--4-4-4-4-4-4--3-3-3-3-3-3-|

"When I look around..."
e---------------------------------------------------------|
b---------------------------------------------------------|
g---------------------------------------------------------|
d--2-2-2-2-2-5-7-7-7-7-7-5-10-10-10-10-10-5-7-7-7-7-7-9-9-|
a--2-2-2-2-2-5-7-7-7-7-7-5-10-10-10-10-10-5-7-7-7-7-7-9-9-|
d--2-2-2-2-2-5-7-7-7-7-7-5-10-10-10-10-10-5-7-7-7-7-7-9-9-|
repeat this through twice
then:

"When I look around outside..."
e-----------------------------------------------------------------|
b-----------------------------------------------------------------|
g-----------------------------------------------------------------|
d--2-2-2-2-2s7s5-5-5-5-5s10s7-7-7-7-7-s-12-s-10-10-10-10-10-12-12-|
a--2-2-2-2-2s7s5-5-5-5-5s10s7-7-7-7-7-s-12-s-10-10-10-10-10-12-12-|
d--2-2-2-2-2s7s5-5-5-5-5s10s7-7-7-7-7-s-12-s-10-10-10-10-10-12-12-|
play this once through
then:

"and If I'm old..."
e----------------------------------------------------------|
b----------------------------------------------------------|
g----------------------------------------------------------|
d--2-2-2-2-2-5-7-7-7-7-7-5-10-10-10-10-10-5-7-7-7-7-7-9-9--|
a--2-2-2-2-2-5-7-7-7-7-7-5-10-10-10-10-10-5-7-7-7-7-7-9-9--|
d--2-2-2-2-2-5-7-7-7-7-7-5-10-10-10-10-10-5-7-7-7-7-7-9-9--|

"Work it out......"
e----------------------------------------------------------------|
b----------------------------------------------------------------|
g----------------------------------------------------------------|
d--10-10-10-10-10-10-10-10-10-10-10-10-5-7-7-7-7-7-7-7-7-7-7-7-5-|
a--10-10-10-10-10-10-10-10-10-10-10-10-5-7-7-7-7-7-7-7-7-7-7-7-5-|
d--10-10-10-10-10-10-10-10-10-10-10-10-5-7-7-7-7-7-7-7-7-7-7-7-5-|

"Mona Lisa..."
e-------------------------------------------------------------------|
b-------------------------------------------------------------------|
g-------------------------------------------------------------------|
d--10-10-10-10-10-10-10-10-10-10-10-10-5--7-7-7-5-2-7-7-7-5-2-7-7-5-|
a--10-10-10-10-10-10-10-10-10-10-10-10-5--7-7-7-5-2-7-7-7-5-2-7-7-5-|
d--10-10-10-10-10-10-10-10-10-10-10-10-5--7-7-7-5-2-7-7-7-5-2-7-7-5-|

e----------------------------------------------------------------|
b----------------------------------------------------------------|
g----------------------------------------------------------------|
d--10-10-10-10-10-10-10-10-10-10-10-10-5-7-7-7-7-7-7-7-7-7-7-7-5-|
a--10-10-10-10-10-10-10-10-10-10-10-10-5-7-7-7-7-7-7-7-7-7-7-7-5-|
d--10-10-10-10-10-10-10-10-10-10-10-10-5-7-7-7-7-7-7-7-7-7-7-7-5-|

e----------------------------------------|
b----------------------------------------|
g----------------------------------------|
d--10-10-10-10-10-10-10-10-10-10-10-10-5-|
a--10-10-10-10-10-10-10-10-10-10-10-10-5-|
d--10-10-10-10-10-10-10-10-10-10-10-10-5-|

e---------------------------------------------------------|
b---------------------------------------------------------|
g---------------------------------------------------------|
d--7-7-7-5-2-7-7-7-5-2-7-7-5------------------------------|
a--7-7-7-5-2-7-7-7-5-2-7-7-5------------------------------| repeat this through 8 times
d--7-7-7-5-2-7-7-7-5-2-7-7-5------------------------------|

"When I look around....."
e---------------------------------------------------------|
b---------------------------------------------------------|
g---------------------------------------------------------|
d--2-2-2-2-2-5-7-7-7-7-7-5-10-10-10-10-10-5-7-7-7-7-7-9-9-|
a--2-2-2-2-2-5-7-7-7-7-7-5-10-10-10-10-10-5-7-7-7-7-7-9-9-|
d--2-2-2-2-2-5-7-7-7-7-7-5-10-10-10-10-10-5-7-7-7-7-7-9-9-|
repeat this through twice
then:


e-----------------------------------------------------------------|
b-----------------------------------------------------------------|
g-----------------------------------------------------------------|
d--2-2-2-2-2s7s5-5-5-5-5s10s7-7-7-7-7-s-12-s-10-10-10-10-10-12-12-|
a--2-2-2-2-2s7s5-5-5-5-5s10s7-7-7-7-7-s-12-s-10-10-10-10-10-12-12-|
d--2-2-2-2-2s7s5-5-5-5-5s10s7-7-7-7-7-s-12-s-10-10-10-10-10-12-12-|
play this once through
then:

e---------------------------------------------------------|
b---------------------------------------------------------|
g---------------------------------------------------------|
d--2-2-2-2-2-5-7-7-7-7-7-5-10-10-10-10-10-5-7-7-7-7-7-9-9-|
a--2-2-2-2-2-5-7-7-7-7-7-5-10-10-10-10-10-5-7-7-7-7-7-9-9-|
d--2-2-2-2-2-5-7-7-7-7-7-5-10-10-10-10-10-5-7-7-7-7-7-9-9-|

"Work it out.."
e---------------------------------------------------|
b---------------------------------------------------|
g---------------------------------------------------|
d--7-9-9-7-9-9-7-9----------------------------------|
a--7-9-9-7-9-9-7-9----------------------------------|keep strumming on the last chord
d--7-9-9-7-9-9-7-9----------------------------------|

"Hello, I left a message.."
e-----------------------------------------------------------|
b-----------------------------------------------------------|
g-----------------------------------------------------------|
d--2-2-x-x-x-2-2-2--7-7-7-7--2-2-2-x-x-x-2-2-2--7-7-7-7--2~-|
a--2-2-x-x-x-2-2-2--7-7-7-7--2-2-2-x-x-x-2-2-2--7-7-7-7--2~-|
d--2-2-x-x-x-2-2-2--7-7-7-7--2-2-2-x-x-x-2-2-2--7-7-7-7--2~-|
Добавлено: 30.06.2012
Другие материалы по этой песне:
  • Аккорды и текст

Страница создана 30.06.2012
http://primanota.ru/dinosaur-pile-up/mona-lisa-chords.htm
Привет, Гость.
Предлагаем пройти революционный курс по гитаре.
Подарок от PrimaNota.Ru, забирай!