PrimaNota.ru - самый крупный в мире бесплатный архив песенных текстов, аккордов, табулатур и нот


Dinosaur Pile-up - Birds Planes - таба, видео

Регистрация Запомнить меня
Войти через:  Facebook Google Twitter Vk Yandex Mail.ru

Dinosaur Pile-up - Birds Planes - таба, видео

Печатать
Просмотров: 124
Birds & Planes by Dinosaur Pile Up - From the album Growing Pains

Here's my rough tab of the first track of their album

"This morning my best friend....."
e-----------------------------------------------------------------|
b-----------------------------------------------------------------|
g-----------------------------------------------------------------|
d--9-9-9--4----9-9-9--4----9-9-9--4----3-3--2-2--4----3--2--4-----|
a--9-9-9--4-x7-9-9-9--4-x7-9-9-9--4-x4-3-3--2-2--4-x7-3--2--4-x15-|
d--9-9-9--4----9-9-9--4----9-9-9--4----3-3--2-2--4----3--2--4-----|

"Maybe I should ask the sky......"
e----------------------------------------------------------------------------|
b----------------------------------------------------------------------------|
g----------------------------------------------------------------------------|
d-7-7-7-7-9-9-9-9--4----7-7-7-7-9-9-9-9--4----7-7-7-7-9-9-9-9--4---3----2----|
a-7-7-7-7-9-9-9-9--4-x9-7-7-7-7-9-9-9-9--4-x9-7-7-7-7-9-9-9-9--4x9-3-x7-2----|x8
d-7-7-7-7-9-9-9-9--4----7-7-7-7-9-9-9-9--4----7-7-7-7-9-9-9-9--4---3----2----|

"I'd make friends with the......."
e--------------------------------------------------------------------------|
b--------------------------------------------------------------------------|
g--------------------------------------------------------------------------|
d7-7-7-7-9-9-9-9-4----7-7-7-7-9-9-9-9-4---7-7-7-7-9-9-9-9--4---3----2----9-|
a7-7-7-7-9-9-9-9-4-x9-7-7-7-7-9-9-9-9-4x9-7-7-7-7-9-9-9-9--4x9-3-x7-2-x8-9-|
d7-7-7-7-9-9-9-9-4----7-7-7-7-9-9-9-9-4---7-7-7-7-9-9-9-9--4---3----2----9-|

e-----------------------------------|
b-----------------------------------|
g-----------------------------------|
d--4----7--4-4-4-4--7-7-7--3-3-3----|
a--4-x8-7--4-4-4-4--7-7-7--3-3-3-x2-|
d--4----7--4-4-4-4--7-7-7--3-3-3----|

"I miss the days when I.........."
e-----------------------------------------------------------------|
b-----------------------------------------------------------------|
g-----------------------------------------------------------------|
d--9-9-9--4----9-9-9--4----9-9-9--4----3-3--2-2--4----3--2--4-----|
a--9-9-9--4-x7-9-9-9--4-x7-9-9-9--4-x4-3-3--2-2--4-x7-3--2--4-x15-|
d--9-9-9--4----9-9-9--4----9-9-9--4----3-3--2-2--4----3--2--4-----|

"Maybe I should ask the sky......"
e----------------------------------------------------------------------------|
b----------------------------------------------------------------------------|
g----------------------------------------------------------------------------|
d-7-7-7-7-9-9-9-9--4----7-7-7-7-9-9-9-9--4----7-7-7-7-9-9-9-9--4---3----2----|
a-7-7-7-7-9-9-9-9--4-x9-7-7-7-7-9-9-9-9--4-x9-7-7-7-7-9-9-9-9--4x9-3-x7-2----|x8
d-7-7-7-7-9-9-9-9--4----7-7-7-7-9-9-9-9--4----7-7-7-7-9-9-9-9--4---3----2----|

"I'd make friends with the......."
e--------------------------------------------------------------------------|
b--------------------------------------------------------------------------|
g--------------------------------------------------------------------------|
d7-7-7-7-9-9-9-9-4----7-7-7-7-9-9-9-9-4---7-7-7-7-9-9-9-9--4---3----2----9-|
a7-7-7-7-9-9-9-9-4-x9-7-7-7-7-9-9-9-9-4x9-7-7-7-7-9-9-9-9--4x9-3-x7-2-x8-9-|
d7-7-7-7-9-9-9-9-4----7-7-7-7-9-9-9-9-4---7-7-7-7-9-9-9-9--4---3----2----9-|


e----------------------------------------------------------------------|
b----------------------------------------------------------------------|
g----------------------------------------------------------------------|
d--4----7--4-4-4-4--7-7-7--3-3-3----------4----7--4-4-4-4--7-7-7--9----|
a--4-x8-7--4-4-4-4--7-7-7--3-3-3-x3 then--4-x8-7--4-4-4-4--7-7-7--9-x8-|
d--4----7--4-4-4-4--7-7-7--3-3-3----------4----7--4-4-4-4--7-7-7--9----|

"No more, alone, no more, alone.."              "No more..."
e----------------------                       ----------------|
b----------------------                       ----------------|
g----------------------                         --------------|
d--2-----0-----9-----3-                      --2-----0--------|
a--2-x8--0-x8--9-x8--3-x8   play this through --2-x8--0-x8----| then its just
d--2-----0-----9-----3-     four times then   --2-----0-------| the bass line

e-------------------------------------|
b-------------------------------------|
g-------------------------------------|
d----4------7--4-4-4-4--7-7-7--3-3-3--|
a----4-x7---7--4-4-4-4--7-7-7--3-3-3--| play this through twice
d----4------7--4-4-4-4--7-7-7--3-3-3--|

"Maybe I should ask the sky......"
e----------------------------------------------------------------------------|
b----------------------------------------------------------------------------|
g----------------------------------------------------------------------------|
d-7-7-7-7-9-9-9-9--4----7-7-7-7-9-9-9-9--4----7-7-7-7-9-9-9-9--4---3----2----|
a-7-7-7-7-9-9-9-9--4-x9-7-7-7-7-9-9-9-9--4-x9-7-7-7-7-9-9-9-9--4x9-3-x7-2----|x8
d-7-7-7-7-9-9-9-9--4----7-7-7-7-9-9-9-9--4----7-7-7-7-9-9-9-9--4---3----2----|

"I'd make friends with the......."
e--------------------------------------------------------------------------|
b--------------------------------------------------------------------------|
g--------------------------------------------------------------------------|
d7-7-7-7-9-9-9-9-4----7-7-7-7-9-9-9-9-4---7-7-7-7-9-9-9-9--4---3----2----9-|
a7-7-7-7-9-9-9-9-4-x9-7-7-7-7-9-9-9-9-4x9-7-7-7-7-9-9-9-9--4x9-3-x7-2-x8-9-|
d7-7-7-7-9-9-9-9-4----7-7-7-7-9-9-9-9-4---7-7-7-7-9-9-9-9--4---3----2----9-|

outro

e-----------------------|
b-----------------------|
g-----------------------|
d----4------7--4-----7--| listen to the song to pick up the
a----4-x7---7--4-x7--7--| picking pattern
d----4------7--4-----7--|
Добавлено: 19.06.2012
Другие материалы по этой песне:
  • Аккорды и текст

Страница создана 19.06.2012
http://primanota.ru/dinosaur-pile-up/birds-planes-chords.htm
Привет, Гость.
Предлагаем пройти революционный курс по гитаре.
Подарок от PrimaNota.Ru, забирай!