PrimaNota.ru - самый крупный в мире бесплатный архив песенных текстов, аккордов, табулатур и нот


Dinosaur Pile-up - 11 11 - таба, видео

Регистрация Запомнить меня
Войти через:  Facebook Google Twitter Vk Yandex Mail.ru

Dinosaur Pile-up - 11 11 - таба, видео

Печатать
Просмотров: 93
Уроки эстрадного вокала в Санкт-Петербурге
Авторы: Matt Bigland

-------------------------------------------------------------------------------
                           11:11 - Dinosaur Pile-Up
-------------------------------------------------------------------------------

Tabbed by: TOMMYGULLY2012

Tuning: Drop C# (C#G#C#F#A#D#)

A very simple song...

Intro (Clean/Crunch)

d#|----------------------------------------------------------------------------------------------|
A#|----------------------------------------------------------------------------------------------|
F#|----------------------------------------------------------------------------------------------|
C#|----------------------------------------------------------------------------------------------|
G#|------------3--------x-x----------3-----------------------3--------x-x----------3---5-5-5-5---|
C#|-0-0---2--0----0--0--x-x--0--2--0---0--0--0-0-0--0---2--0----0--0--x-x--0--2--0---0-----------|

d#|----------------------------------------------------------------------with distortion and-----|
A#|----------------------------------------------------------------------------palm muted--------|
F#|----------------------------------------------------------------------------------------------|
C#|--------------------------------------------------------------------------------|=====|-------|
G#|------------3--------x-x----------3-----------------------3--------x-x----------0-0-0-0-------|
C#|-0-0---2--0----0--0--x-x--0--2--0---0--0--0-0-0--0---2--0----0--0--x-x--0--2--0-0-0-0-0-------|

Chorus (Distortion)

d#|----------------------------------------------------------------------------------------------|
A#|----------------------------------------------------------------------------------------------|
F#|----------------------------------------------------------------------------------------------|
C#|----------------------------------------------------------------------------------------------|
G#|------------3--------x-x----------3-----------------------3--------x-x----------3---5-5-5b-5b-|
C#|-0-0---2--0----0--0--x-x--0--2--0---0--0--0-0-0--0---2--0----0--0--x-x--0--2--0---0-----------|

d#|---------------------------------------------------------------------------P.M.======|--------|
A#|----------------------------------------------------------------------------------------------|
F#|----------------------------------------------------------------------------------------------|
C#|----------------------------------------------------------------------------------------------|
G#|------------3--------x-x----------3-----------------------3--------x-x----------0-0-0-0-------|
C#|-0-0---2--0----0--0--x-x--0--2--0---0--0--0-0-0--0---2--0----0--0--x-x--0--2--0-0-0-0-0-------|

Verse (Distortion)
                                                                              (no distortion)
d#|----------------------------------------------------------------------------------------------|
A#|----------------------------------------------------------------------------------------------|
F#|----------------------------------------------------------------------------------------------|
C#|------------------------------------+12+------------------------------------------------------|
G#|---------------------------------+12+-------------------------------------------x--5-5-5-5----|
C#|-0--------------------------------------------------------0-----------------------------------|

(Clean/Crunch)

d#|----------------------------------------------------------------------------------------------|
A#|----------------------------------------------------------------------------------------------|
F#|----------------------------------------------------------------------------------------------|
C#|----------------------------------------------------------------------------------------------|
G#|------------15-------x-x----------15----------------------15-------x-x---------15--17-17-17-17|
C#|-0-0--14--0----0--0--x-x--0-14--0---0--0--0-0-0--0--14--0----0--0--x-x--0-14--0---0-----------|

d#|----------------------------------------------------------------------------------------------|
A#|----------------------------------------------------------------------------------------------|
F#|----------------------------------------------------------------------------------------------|
C#|----------------------------------------------------------------------------------------------|
G#|------------15-------x-x----------15----------------------15-------x-x------------------------|
C#|-0-0--14--0----0--0--x-x--0-14--0---0--0--0-0-0--0--14--0----0--0--x-x--0-14--0---0-----------|

Chorus (Distortion)

d#|----------------------------------------------------------------------------------------------|
A#|----------------------------------------------------------------------------------------------|
F#|----------------------------------------------------------------------------------------------|
C#|----------------------------------------------------------------------------------------------|
G#|------------3--------x-x----------3-----------------------3--------x-x----------3---5-5-5b-5b-|
C#|-0-0---2--0----0--0--x-x--0--2--0---0--0--0-0-0--0---2--0----0--0--x-x--0--2--0---0-----------|

d#|---------------------------------------------------------------------------P.M.======|--------|
A#|----------------------------------------------------------------------------------------------|
F#|----------------------------------------------------------------------------------------------|
C#|----------------------------------------------------------------------------------------------|
G#|------------3--------x-x----------3-----------------------3--------x-x----------0-0-0-0-------|
C#|-0-0---2--0----0--0--x-x--0--2--0---0--0--0-0-0--0---2--0----0--0--x-x--0--2--0-0-0-0-0-------|

Verse (Distortion)
                                                                              (no distortion)
d#|----------------------------------------------------------------------------------------------|
A#|----------------------------------------------------------------------------------------------|
F#|----------------------------------------------------------------------------------------------|
C#|------------------------------------+12+------------------------------------------------------|
G#|---------------------------------+12+-------------------------------------------x--5-5-5-5----|
C#|-0--------------------------------------------------------0-----------------------------------|

(Clean/Crunch)

d#|----------------------------------------------------------------------------------------------|
A#|----------------------------------------------------------------------------------------------|
F#|----------------------------------------------------------------------------------------------|
C#|----------------------------------------------------------------------------------------------|
G#|------------15-------x-x----------15----------------------15-------x-x---------15--17-17-17-17|
C#|-0-0--14--0----0--0--x-x--0-14--0---0--0--0-0-0--0--14--0----0--0--x-x--0-14--0---0-----------|

d#|----------------------------------------------------------------------------------------------|
A#|----------------------------------------------------------------------------------------------|
F#|----------------------------------------------------------------------------------------------|
C#|----------------------------------------------------------------------------------------------|
G#|------------15-------x-x----------15----------------------15-------x-x------------------------|
C#|-0-0--14--0----0--0--x-x--0-14--0---0--0--0-0-0--0--14--0----0--0--x-x--0-14--0---0-----------|

Chorus (Distortion)

d#|----------------------------------------------------------------------------------------------|
A#|----------------------------------------------------------------------------------------------|
F#|----------------------------------------------------------------------------------------------|
C#|----------------------------------------------------------------------------------------------|
G#|------------3--------x-x----------3-----------------------3--------x-x----------3---5-5-5b-5b-|
C#|-0-0---2--0----0--0--x-x--0--2--0---0--0--0-0-0--0---2--0----0--0--x-x--0--2--0---0-----------|

d#|----------------------------------------------------------------------------------------------|
A#|----------------------------------------------------------------------------------------------|
F#|----------------------------------------------------------------------------------------------|
C#|----------------------------------------------------------------------------------------------|
G#|------------3--------x-x----------3-----------------------3--------x-x----------3-------/\----|
C#|-0-0---2--0----0--0--x-x--0--2--0---0--0--0-0-0--0---2--0----0--0--x-x--0--2--0---0-0---/\----|

Bridge (Distortion)

d#|----------------------------------------------------------------------------------------------|
A#|----------------------------------------------------------------------------------------------|
F#|----------------------------------------------------------------------------------------------|
C#|----------------------------------------------------------------------------------------------|
G#|-3-3--3-3-3--3-3-3--3-3-3--3-3-3--3-3-3----3-2----2-1------------3------------------3------/\-|
C#|-3-3--3-3-3--3-3-3--3-3-3--3-3-3--3-3-3--0-3-2--0-2-1--0-0--2--0---0---------0--2-0---0-0--/\-|


d#|----------------------------------------------------------------------------------------------|
A#|----------------------------------------------------------------------------------------------|
F#|----------------------------------------------------------------------------------------------|
C#|----------------------------------------------------------------------------------------------|
G#|-3-3--3-3-3--3-3-3--3-3-3--3-3-3--3-3-3-------------------------------------------------------|
C#|-3-3--3-3-3--3-3-3--3-3-3--3-3-3--3-3-3--0-15-14~--0-14-13~-----------------------------------|

(Clean/Crunch on neck pickup)

d#|----------------------------------------------------------------------------------------------|
A#|----------------------------------------------------------------------------------------------|
F#|----------------------------------------------------------------------------------------------|
C#|----------------------------------------------------------------------------------------------|
G#|------------15-------x-x----------15----------------------15-------x-x---------15--17-17-17-17|
C#|-0-0--14--0----0--0--x-x--0-14--0---0--0--0-0-0--0--14--0----0--0--x-x--0-14--0---0-----------|

d#|----------------------------------------------------------------------with distortion and-----|
A#|-----------------------------------------------------------------------------palm muted-------|
F#|----------------------------------------------------------------------------------------------|
C#|--------------------------------------------------------------------------------|=====|-------|
G#|------------15-------x-x----------15----------------------15-------x-x----------0-0-0-0-------|
C#|-0-0--14--0----0--0--x-x--0-14--0---0--0--0-0-0--0--14--0----0--0--x-x--0-14--0-0-0-0-0-------|

Chorus (Distortion)

d#|----------------------------------------------------------------------------------------------|
A#|----------------------------------------------------------------------------------------------|
F#|----------------------------------------------------------------------------------------------|
C#|----------------------------------------------------------------------------------------------|
G#|------------3--------x-x----------3-----------------------3--------x-x----------3---5-5-5b-5b-|
C#|-0-0---2--0----0--0--x-x--0--2--0---0--0--0-0-0--0---2--0----0--0--x-x--0--2--0---0-----------|

d#|----------------------------------------------------------------------------------------------|
A#|----------------------------------------------------------------------------------------------|
F#|----------------------------------------------------------------------------------------------|
C#|----------------------------------------------------------------------------------------------|
G#|------------3--------x-x----------3-----------------------3--------x-x----------3-------/\----|
C#|-0-0---2--0----0--0--x-x--0--2--0---0--0--0-0-0--0---2--0----0--0--x-x--0--2--0---0-0---/\----|

Outro

d#|----------------------------------------------------------------------------------------------|
A#|----------------------------------------------------------------------------------------------|
F#|----------------------------------------------------------------------------------------------|
C#|----------------------------------------------------------------------------------------------|
G#|------------3---------------------3-----------------------3---------------------3-------------|
C#|-0-0---2--0----0----------0--2--0---0---------0--0---2--0----0----------0--2--0---0-----------|

d#|----------------------------------------------------------------------------------------------|
A#|----------------------------------------------------------------------------------------------|
F#|----------------------------------------------------------------------------------------------|
C#|----------------------------------------------------------------------------------------------|
G#|------------3---------------------3-----------------3b5---------------------------------------|
C#|-0-0---2--0----0----------0--2--0---0---------0--------------0----------0--3--2--1~-----------|

************************************

| /   slide up
| \   slide down
| h   hammer-on
| p   pull-off
| ~   vibrato
| +   harmonic
| x   Mute note
| b   Bend
| pb  Pre-bend
| br  Bend release
| pbr Pre-bend release
| brb Bend release bend

************************************
Добавлено: 24.06.2016
Другие материалы по этой песне:
  • Аккорды и текст

Страница создана 24.06.2016
http://primanota.ru/dinosaur-pile-up/11-11-chords.htm
Привет, Гость.
Предлагаем пройти революционный курс по гитаре.
Подарок от PrimaNota.Ru, забирай!