PrimaNota.ru - самый крупный в мире бесплатный архив песенных текстов, аккордов, табулатур и нот


Dinosaur Jr - Yeah Right - текст песни, таба, видео

Регистрация Запомнить меня
Войти через:  Facebook Google Twitter Vk Yandex Mail.ru

Dinosaur Jr - Yeah Right - текст песни, таба, видео

Печатать
Просмотров: 109
Авторы: J Mascis

DINOSAUR JR
YEAR RIGHT
WITHOUT A SOUND
STANDARD TUNING: E A D G B E
Transcribed by Neil Cabatingan
NOTE: the end part of the guitar solo(where the second guitar comes in
is incomplete, i will tab the rest out later
-----------------------------------------------------------------------
INTRO:
e:--5~---------|-------|----------|-----------------|
B:--5~---------|-------|----------|-----------------|
G:--6~---------|--9-9--|--6/8--6--|-----7~------7~--| x3
D:--7~7-7-7-7--|--9-9--|--7/9--7--|----7-----7------|
A:--7~7-7-7-7--|--7-7--|--7/9--7--|-----------------|
E:--5~5-5-5-5--|-------|--5/7--5--|--5-----5--------|

e:--5~---------|-------|----------|---------------------------|
B:--5~---------|-------|----------|--10-10-12p10--10-10-12p10-|
G:--6~---------|--9-9--|--6/8--6--|---------------------------|
D:--7~7-7-7-7--|--9-9--|--7/9--7--|---------------------------|
A:--7~7-7-7-7--|--7-7--|--7/9--7--|---------------------------|
E:--5~5-5-5-5--|-------|--5/7--5--|---------------------------|

VERSE:
e:--5------------|------------|-------|
B:--5------------|------------|-------|
G:--6------------|--11-11-11--|--9-9--|
D:--7-7-x-7-7-7--|--11-11-11--|--9-9--| x4
A:--7-7-x-7-7-7--|---9--9--9--|--7-7--|
E:--5-5-x-5-5-5--|------------|-------|

INTRO

VERSE

CHORUS:
e:---------------------|-------------------|------------------------|
B:---------------------|-------------------|------------------------|
G:--4-x-4-4-4-4-4-4-4--|--6--6-6-6-6-6-6-6-|------------------------|
D:--4-x-4-4-4-4-4-4-4--|--6--6-6-6-6-6-6-6-|--5-5-5-4-4-5-5-5-4-----|
A:--2-x-2-2-2-2-2-2-2--|--4--4-4-4-4-4-4-4-|--5-5-5-4-4-5-5-5-4-----|
E:---------------------|-------------------|--3-3-3-2-2-3-3-3-2-etc.|
                                              chunky palm mute.....

e:---------------------|-------------------|----------------|
B:---------------------|-------------------|----------------|
G:--4-x-4-4-4-4-4-4-4--|--6--6-6-6-6-6-6-6-|----------------|
D:--4-x-4-4-4-4-4-4-4--|--6--6-6-6-6-6-6-6-|--7-7-7-7-7-7-7-|
A:--2-x-2-2-2-2-2-2-2--|--4--4-4-4-4-4-4-4-|--7-7-7-7-7-7-7-|
E:---------------------|-------------------|--5-5-5-5-5-5-5-|

INTRO

VERSE

CHORUS

GUITAR SOLO/OUTRO SOLO
Lead In
e:----------------|
B:----------------|
G:----------------|
D:--9b(10)-7------|
A:-----------9b~--|
E:----------------|

e:------------------------------------------|
B:------------------------------------------|
G:-11-9-7----------------6-7-6h7------------|
D:---------11-7b~----7-----------7---7-9/12-|
A:----------------9b------------------------|
E:------------------------------------------|

e:--------------------------------------|
A:-12-10----12-10----12b(14)-12p10---10-|
D:-----11-------11---------------11-----|
G:--------------------------------------|
B:--------------------------------------|
E:--------------------------------------|

e:-10-9----9----12---17b(19)-17-17b(19)-14-17-|
B:------10---10-------------------------------|
G:--------------------------------------------|
D:--------------------------------------------|
A:--------------------------------------------|
E:--------------------------------------------|
    fast part, add more hammer on and pull-offs if needed
e:--14h17p14p12-----------------------|
B:--------------17p14p12-12h14p12-----|
G:--------------------------------14~-|
D:------------------------------------|
A:------------------------------------|
E:------------------------------------|

                                Loud guitar comes in......
e:-----------------------------------------------|
B:-----------------------------------------------|
G:-14--13-13-14-14-13-13-14-14---9-9----11b(12)-9|
D:-----------------------------------11----------|
A:-----------------------------------------------|
E:-----------------------------------------------|

e:-------------------------------|
B:-------------------------------|
G:-----------------------------7-|
D:---12~-12-12-11-7-7--7-7-7/9---|
A:-------------------------------|
E:-------------------------------|

e:---------------
B:---------------
G:--/14-11-------
D:---------14...-
A:--------------- 
E:--------------- 

Добавлено: 03.07.2012
Другие материалы по этой песне:
  • Аккорды и текст

Страница создана 24.03.2012
http://primanota.ru/dinosaur-jr/yeah-right-chords.htm
Привет, Гость.
Предлагаем пройти революционный курс по гитаре.
Подарок от PrimaNota.Ru, забирай!