PrimaNota.ru - самый крупный в мире бесплатный архив песенных текстов, аккордов, табулатур и нот


Dinosaur Jr - What Was That - таба, видео

Регистрация Запомнить меня
Войти через:  Facebook Google Twitter Vk Yandex Mail.ru

Dinosaur Jr - What Was That - таба, видео

Печатать
Просмотров: 98
Dinosaur Jr.
"What Was That"
Songwriter: J Mascis
From the album: I Bet On Sky (2012)

______________

CAPO: 7th Fret
______________

Intro:

E-----0----------------------------------------|
B-----0--0-1-3-3/5--3-1-0--0h1p0----0----------|
G-----0--------------------------2----0--------|
D-----0----------------------------------------|
A--2-------------------------------------------|
E--3-------------------------------------------|

E-----0------------3--5-/8--7---7---------------|
B-----0--0-1-3-3/5------------8-----------------|
G-----0-----------------------------------------|
D--2--2-----------------------------------------|
A--3--------------------------------------------|
E-----------------------------------------------|

Verse: (I miss my life, this isn't good...")

E--------------------------------------------3---------|
B--0---0---0-1-3--1--0----0-1-3--1-0--0-1-3------------|
G--0---0---0--------------0-----------0----------------|
D--0---0---0--------------2-----------2----------------|
A--2---2---2--------------3-----------3----------------|
E--3---3---3-------------------------------------------|

   G                    Cmaj7

Pre-Chorus: ("Said I'm dying to meet you..")

E----2-----0----------2---2--2--2-|-----------------------------|
B------3------3---------3---------|-1-----0----0-3----0--3---0--|
G--------2------2---2-------------|---0------------0-------0----|
D--0--------------0---------------|-----2------------2----------|
A---------------------------------|(3)-------3------------------|
E---------------------------------|-----------------------------|
   D                                C

E-----------------0-------------------------------------|
B-----------------0-------------------------------------|
G-------X-X-X-X---0--(play Em part twice)---------------|
D--2----X-X-X-X---2---<<<<<<(2x)<<<<<<<<----------------|
A--2----X-X-X-X---2-------------------------------------|
E--0----X-X-X-X---0-------------------------------------|

   Em

Chorus: ("I opened the door...")


E--0-------------------0--------|
B--1---------1---------0--------|
G--2---------0---------0--------|
D--3---------2---------0--------|
A------------3---------2--------|
E----------------------3--------|

 Fmaj7       C         G

Post-Chorus: (Then I look, what was that...")

E--0-------------------|
B--1---------1---------|
G--2---------0---------|
D--3---------2---------|
A------------3---------|
E----------------------|

____________________

LYRICS: (incomplete)
____________________

I miss my life, this isn't good
Got soaked in, I wish you would

Said I'm dying to meet you, what should I bring
Someone said I should see you, I'll try anthing

I opened the door, knew I wanted more
Never seemed so big like this before
Walk right out, what was that
Walk right out, gotta go back

I finally went, I brought my friend
My mind's a mess, I've gotta mend

Said I'm dying to meet you, I almost ?
Someone said I should see you, it's a bad idea

My mind's telling lies, tricks me all the time
?
Then I look, what was that
I was hooked, I came back

It's been a while, she knows my face
I've got so much, I ?
Добавлено: 21.11.2013
Другие материалы по этой песне:
  • Аккорды и текст

Страница создана 21.11.2013
http://primanota.ru/dinosaur-jr/what-was-that-chords.htm
Привет, Гость.
Предлагаем пройти революционный курс по гитаре.
Подарок от PrimaNota.Ru, забирай!