PrimaNota.ru - самый крупный в мире бесплатный архив песенных текстов, аккордов, табулатур и нот


Dinosaur Jr - Pieces - аккорды и текст, видео

Регистрация Запомнить меня
Войти через:  Facebook Google Twitter Vk Yandex Mail.ru

Dinosaur Jr - Pieces - аккорды и текст, видео

Печатать
Просмотров: 147
Уроки эстрадного вокала в Санкт-Петербурге
Авторы: J Mascis

Pieces
Dinosaur Jr
Pieces by Dinosaur Jr
From The new album - Farm

*** Capo 7th Fret ***
(everything relative to Capo)
(p.s. lyrics = hah!)

Intro:  (3)3rd/4th times        
        /
e|--0--0--3--1--1p0-------------|
B|--1--1--0--3-----1-3p1-1------|
G|--2--0--0--2----------2-------|  x 4
D|--3--2--0--0------------------|
A|--3--2--2--x------------------|
E|--x-----3--x------------------|

Verse:
e|-0--------------------------------|
B|-1-1-3/5-0-0--0-------------------|
G|-2-2-----0--0--0------------------|
D|-2-2-----2---2--------------------|
A|-0-0-----2------------------------|
E|---------0------------------------|

Peel me back
Seal the crack
No excuse
Pieces moved

Chorus:  (3)3rd/4th times        
        /
e|--0--0--3--1--1p0-------------|
B|--1--1--0--3-----1-3p1-1------|
G|--2--0--0--2----------2-------|  x 4
D|--3--2--0--0------------------|
A|--3--2--2--x------------------|
E|--x-----3--x------------------|

Grab the wheel and feel the pieces of our love
Wrapped inside what I wouldn't want to judge
Our love
Our love

Verse:
e|-0--------------------------------|
B|-1-1-3/5-0-0--0-------------------|
G|-2-2-----0--0--0------------------|
D|-2-2-----2---2--------------------|
A|-0-0-----2------------------------|
E|---------0------------------------|

I can't stay
You wont wait
Meet me there
Of course it's fair

Chorus:  (3)3rd/4th times        
        /
e|--0--0--3--1--1p0-------------|
B|--1--1--0--3-----1-3p1-1------|
G|--2--0--0--2----------2-------|  x 4
D|--3--2--0--0------------------|
A|--3--2--2--x------------------|
E|--x-----3--x------------------|

Give me time to find my pieces of our love
Wrapped around me are the pieces I can't touch
Of our love
Our love

Bridge:             2nd/4th times
e|------------------/---|
B|-1-0-1----1---1-(1)---|
G|-2-0-2----2---0-(0)---| x4
D|-2-0-2----3---2-(2)---| 
A|-0-0-0----3---3-(3)---|
E|----------1-----------|

Solo:
over Verse progression x4
and then Bridge progression x4

Bridge 2:
e|--0--0----0--0--0----|
B|--0--0----0--0--0----|
G|--2--2----2--2--0----|
D|--3--2----3--2--0----|
A|--3--0----3--0--2----|
E|--1-------1-----3----|

Can you pull me out?
Can you wave a hand and suddenly there's no doubt?
Can you make it so?
Can you bring a smile that makes me forget? Oh no?

Verse:
e|-0--------------------------------|
B|-1-1-3/5-0-0--0-------------------|
G|-2-2-----0--0--0------------------|
D|-2-2-----2---2--------------------|
A|-0-0-----2------------------------|
E|---------0------------------------|


I can't wait
Is it too late?
I'm not sure
I'll take your word

Chorus:  (3)3rd/4th times        
        /
e|--0--0--3--1--1p0-------------|
B|--1--1--0--3-----1-3p1-1------|
G|--2--0--0--2----------2-------|  x 8
D|--3--2--0--0------------------|
A|--3--2--2--x------------------|
E|--x-----3--x------------------|

Need some help to grab the pieces of our love
Wrapped inside you like it couldn't hurt you much
Our love
Our love
Our love
Our love

End:            I  II  
e|---------------:--------|
B|-1-0-1----1---1:1-1--1--|
G|-2-0-2----2---0:0-0--2--| 
D|-2-0-2----3---2:2-2--3--| 
A|-0-0-0----3---3:3-3--3--|
E|----------1----:-----1--|
Добавлено: 18.07.2012
Другие материалы по этой песне:
  • Аккорды и текст

Страница создана 06.04.2012
http://primanota.ru/dinosaur-jr/pieces-chords.htm
Привет, Гость.
Предлагаем пройти революционный курс по гитаре.
Подарок от PrimaNota.Ru, забирай!