PrimaNota.ru - самый крупный в мире бесплатный архив песенных текстов, аккордов, табулатур и нот


Dinosaur Jr - Lung - текст песни, таба, видео

Регистрация Запомнить меня
Войти через:  Facebook Google Twitter Vk Yandex Mail.ru

Dinosaur Jr - Lung - текст песни, таба, видео

Печатать
Просмотров: 122
Guitar one
i haven't tabbed the solo yet, but i'm 90% sure what i have here is all correct.

intro
   PM------------------------------|
e------------------3-3-3-3-3-3-3-3-|
b------------------3-3-3-3-3-3-3-3-|
g------------------4-4-4-4-4-4-4-4-|
d--5-5-5-5-5-5-5-5-5-5-5-5-5-5-5-5-|
a--5-5-5-5-5-5-5-5-5-5-5-5-5-5-5-5-|
e--3-3-3-3-3-3-3-3-3-3-3-3-3-3-3-3-|
   G5              G

e-2-2-2-2-2-2-2-2-2-2-2-2-2-2-2-2-2-0-----------|
b-3-3-2-2-2-3-3-3-2-2-2-3-3-3-2-2-2-0-0-0-0-1-1-|
g-2-2-2-2-2-2-2-2-2-2-2-2-2-2-2-2-2-0-----------|
d-0-0-0-0-0-0-0-0-0-0-0-0-0-0-0-0-0-2-----------|
a-----------------------------------3-----------|
e-----------------------------------------------|
  D   Dmaj7 D     Dmaj7 D   Dmaj7   Cmaj7

:09
e-0-------------0---------------|
b-0-0-0---------0-0-0-0-1-1-----|
g-0-------------0---------------| etc.
d-2------4-4-5--2---------------| repeat these chords  until the next bit of
a-3------4-4-5--3---------------| the song. listen to the recording and
e--------2-2-3------------------| you'll know what to do.
 Cmaj7   F#5 G5

:34
e------------------------------------------------------------------------------------0---|
b----------0-------------0-1-0-------------0-----------------------------0-------------0-|
g----0---0--0------0---0-------------0-------0-----0--------------0--------0----0--------|
d---2--2---------2---2-------------2---2---------2---2---5-5----2------2-------2----2----|
a--3-----------3-----------------3-------------3---------5-5---3-----3-------3----3------|
e--------------------------------------------------------3-3-----------------------------|
 |Cmajor7

:54                 1:13
e--2-2-2--2-2-2--0-----------------------------------------------------------------------------|
b--2-2-3--2-2-3--0-------------0--------------0-1-0-----------0--------------------------------|
g--2-2-2--2-2-2--0------0----0---0-----0---0------------0---0---0----0------7-7-5-5-5-4-5-4-4--|
d--0-0-0--0-0-0--2----2----2---------2---2------------2---2--------2----5-5-7-7-5-5---------4--|
a----------------3--3--------------3---------------3-------------3------5-5-5-5-3-3---------2--|
e-----------------------------------------------------------------------3-3--------------------|
   |D  |Dmaj7    |Cmaj7 (strum between the d chords)                    G5  D5  C5          B5
   |repeat 4x

repeat the last riff ad infinitum under the solo.
as for the last part that starts after the solo around 3:00, i'm fairly sure you play D
and Dmaj7 arpeggios. i haven't gotten to the tremolo picked parts yet.

e-2--2--|
b-3--2--|
g-2--2--|
d-0--0--|
a-------|
e-------|
  D  Dmaj7
Добавлено: 28.07.2012
Другие материалы по этой песне:
  • Аккорды и текст

Страница создана 23.02.2012
http://primanota.ru/dinosaur-jr/lung-chords.htm
Привет, Гость.
Предлагаем пройти революционный курс по гитаре.
Подарок от PrimaNota.Ru, забирай!