PrimaNota.ru - самый крупный в мире бесплатный архив песенных текстов, аккордов, табулатур и нот


Dinosaur Jr - I Want You To Know - таба, видео

Регистрация Запомнить меня
Войти через:  Facebook Google Twitter Vk Yandex Mail.ru

Dinosaur Jr - I Want You To Know - таба, видео

Печатать
Просмотров: 100
Авторы: J Mascis

-------------------------------------------------------------------------------
                   I Want You To Know - Dinosaur Jr
-------------------------------------------------------------------------------
Tabbed by: Jeff

opening/main riff

     G A             Asus2
e|------------------------------------------------------------------------|
B|------------------------------------------------------------------------|
G|----------------6--4----------------------------------------------------|
D|---5/7---7-7----7--7----------------------------------------------------|
A|---5/7---7-7----7--7----------------------------------------------------|
E|---3/5---5-5------------------------------------------------------------|

Opening riff  x4

D                                                                        *
The startled scream or so it seemed I left it clean and found a place to hide

D                                                            *
I love the place, took up space, forgot to face it by myself outside

   *
e|-------------------------------------------------------------------------|
B|-------------------------------------------------------------------------|
G|--7--9----(main riff x2)-------------------------------------------------|
D|-------------------------------------------------------------------------|
A|--5--7-------------------------------------------------------------------|
E|-------------------------------------------------------------------------|

Bm            D
I want you to know

e|-------------------------------------------|
B|----8--8--8--7---8--8--7-------------------|
G|----7--7--7------7--7----------------------|
D|-------------------------------------------|
A|-------------------------------------------|
E|-------------------------------------------|

*main riff then:

e|---------------------------------------------------------------------------|
B|---------------------------------------------------------------------------|
G|---------------------------------------------------------------------------|
D|---------------------------------------------------------------------------|
A|------------/5---3---------------------------------------------------------|
E|---0--3--------------------------------------------------------------------|

D
I left you there I hid upstairs I had to care 'cause you're the one I see
D
I looked around, I felt the ground, the soul (soil?) not found is hard enough for me

Bm            D
I want you to know


A
Hey

D              A         D
Did I let it go?

A
Stay with me

D                 A            D
Tell me if it shows

Bm            D
I want you to know

D
I brought you there I thought you cared not to stare but you just couldn't see
D
It's always you, it's always me, it's always honkin, you deserve it free

Bm                    D
I want you to know

***update, just got a Little Big Muff which inspired me to tab the solo ;)***
solo

e|--^16----------------------------------------------------------------|
B|--------17---14---17------------14--15^17--15^17v15~~14h15p14--------|
G|----------------------16^18v16~~-------------------------------------|
D|---------------------------------------------------------------------|
A|---------------------------------------------------------------------|
E|---------------------------------------------------------------------|

e|--^16----------------------------------------------------------------|
B|-------17--14---17^19v17------------14-15-14h15p14-------------------|
G|--------------------------14~~14-16----------------16-----14-14----14|
D|-------------------------------------------------------14-------14---|
A|---------------------------------------------------------------------|
E|---------------------------------------------------------------------|

e|--^16-------------------------------------------------------|
B|------17--17^19--17--14-------------------------------------|
G|------------------------14--14\11--11\9--9\7-6h7h9p7-p6---6-|
D|--------------------------------------------------------9---|
A|------------------------------------------------------------|
E|------------------------------------------------------------|

e|---------------------------------------12----------------9-10-10/12-10-9-9|
B|------------------10--12p10----10--12^---(12)-11--12--11----------------12|
G|--7-6-7/9-7-6--/9-----------11--------------------------------------------|
D|--------------------------------------------------------------------------|
A|--------------------------------------------------------------------------|
E|--------------------------------------------------------------------------|

e|------------------9--12--------21-21-21--19--17p14h17--------------------|
B|--12^14v12--12-10---------???------------------------...17-14--17-14--14-|
G|---------------------------------------------------------------------15--|
D|-------------------------------------------------------------------------|
A|-------------------------------------------------------------------------|
E|-------------------------------------------------------------------------|

| /  slide up
| \  slide down
| h  hammer-on
| p  pull-off
| ~  vibrato
| +  harmonic
| x  Mute note
| ^  Bend up
| v  Release bend
===============================================================================
Добавлено: 26.06.2012
Другие материалы по этой песне:
  • Аккорды и текст

Страница создана 26.06.2012
http://primanota.ru/dinosaur-jr/i-want-you-to-know-chords.htm
Привет, Гость.
Предлагаем пройти революционный курс по гитаре.
Подарок от PrimaNota.Ru, забирай!