PrimaNota.ru - самый крупный в мире бесплатный архив песенных текстов, аккордов, табулатур и нот


Dinosaur Jr - Get Out Of This - текст песни, таба, видео

Регистрация Запомнить меня
Войти через:  Facebook Google Twitter Vk Yandex Mail.ru

Dinosaur Jr - Get Out Of This - текст песни, таба, видео

Печатать
Просмотров: 122
Авторы: J Mascis

Couldn't find a tab for this awesome song so decided to make one. It should pretty 
accurate. Enjoy.


Intro

|----3====--------6-5------------3====------6-5-8===-------|
|----1====--------x-x-6----------1====------x-x-x===-------|
|----0====--------3-2-x----------0====------3-2-5===-------|
|----2====------------3--3-------2====---------------------|
|----3====------------------3h5--3====---------------------|
|----------------------------------------------------------|

|--------1-1--------3h5-3h5--------1-1-0-0---3h5-3h5--------------|
|--------1-1-----------------------3-3-1-1------------------------|
|--------2-2-----------------------2-2-0-0------------------------|
|----3-3-3-3-2-2---------------0-0-0-0-2-2------------------------|
|--------------------------------------3-3------------------------|
|-----------------------------------------------------------------|

|----------6-5----------------6-5-8-8p5-6-8-6-5----------------|
|----------x-x-6--------------x-x-x-------------6--------------|
|----------3-2-x--------------3-2-5----------------------------|
|--------------3--3--------------------------------------------|
|-------------------3h5----------------------------------------|
|--------------------------------------------------------------|

Verse
|--------1--1--0--0----3h5-3h5------6-6-6-6-6----------|
|--------2--2--1--1-----------------x-x-x-x-x----------|
|--------3--3--0--0-----------------3-3-3-3-3----------|
|--0--0--0--0--2--2-------------x3---------------------|
|--------------3--3----------------------------3b------|
|------------------------------------------------------|

Just keep repeating the intro and verse until it goes...

And I Know that your the One I Love...

|----3====--------6-5------------3====------6s-10-8s-10----|
|----1====--------x-x-6----------1====------xs-x--xs-x-----|
|----0====--------3-2-x----------0====------3s-7--5s-7-----|
|----2====------------3--3-------2====---------------------|
|----3====------------------3h5--3====---------------------|
|----------------------------------------------------------|

Solo over main riff.
Добавлено: 22.04.2012
Другие материалы по этой песне:
  • Аккорды и текст

Страница создана 22.04.2012
http://primanota.ru/dinosaur-jr/get-out-of-this-chords.htm
Привет, Гость.
Предлагаем пройти революционный курс по гитаре.
Подарок от PrimaNota.Ru, забирай!