PrimaNota.ru - самый крупный в мире бесплатный архив песенных текстов, аккордов, табулатур и нот


Dingdong Avanzado - You Should Know By Now - таба, видео

Регистрация Запомнить меня
Войти через:  Facebook Google Twitter Vk Yandex Mail.ru

Dingdong Avanzado - You Should Know By Now - таба, видео

Печатать
Просмотров: 97
You Should Know By Now
DingDong Avanzado
Tabbed by: Nics
MS Word Compatible 'to... (font size 12, TNR)(2nd tab made)

Intro:
|-------------------------------------------------------------0-2-0--------------------|
|---------3---------------------3--2---------------------3------------------4-5-4------|
|------2---------------------2------------------------2-------------------4---------4--|
|-4-5-------------5-4----2-------------0h2--4--5--------------------4--------------4---|
|-------------2---------0----------0---------------------------------2-----------------|
|-----------------------------------------------3----------2---------------------------|

|----------------------5-|-------2-------0--------0------0-------2------0-------0-------0--|
|--2--4--5---3------3--|---3--3---2---2---0---0--2---2-------3--2---2--0---0--2---2--------|
|--2--4--5---2----2----|---2--2---2---2---2---2--2---2-----2----2---2--2---2--2---2--------|
|-------------------------|--0-------0-0-----0-0----0-0-----0------0-0----0-0----0-0-------|
|--2--4--5---0----------|------------------------------------------------------------------|
|-------------------------|----------------------------------------------------------------|

Verse:

You ought to know by know, love is the look in your eyes
|----2-------0--------0-------0---------2------0-------2---0--0---------|
|-3--3--2---2---0---0--2----2-----3--3--0---0-------3---3---3-----------|
|-2--2--2---2---2---2--2----2-----2--2--2---2---------------------------|
|-0-----0-0-----0-0-----0-0-------0------0-0----------------------------|
|-----------------------------------------------------------------------|
|----------------------------------------------------2-3-----3----------|

Lovin' the way you smile, when I say
|-------------------2---------2---------2--------------------2-----------|
|---------0----3---3------3--3---3----3-------2--2---2----2--------------|
|---------2----2----------2-------2------------2--2---2-----2------------|
|------------------------------------------------2--2---2-----2----------|
|---------------2-2-------2-------2-2-2----4----------4--4---------------|
|-3-2-0------------------------------------------------------------------|

I wish you would stay, you bring out all the youth in me
|--------------------0------------2------------2---2-----2----------------|
|-------1-----1-------1----3-----3-----------2----2----3--2---------------|
|-------0-----2------------2-----2------------2---2-----2-----4--2--------|
|----2-----------0---------4-----4------4----2----2----4------------------|
|-0-----------0------------2--2------2-------4----4----2------------------|
|-------------------------------------------------------------------------|


I laugh and cry out all the truth in me, out o' love, you should know by now
|-----------------2--------2---------------2-5----------------------|
|-2---3--2-------3----3--3--------3--5-------------------3----------|
|-2---2--2------------2--------2------------------------0-----------|
|-2---4--2---------------------4---------------------4--------------|
|-4---2--4----2-------2-------2------------------0------------------|
|--------------------------------0----------------------------------|


Instrumental:
|---------------0-2-3----------------------0---------2------------------2---------------------|
|-----------3---------------------3----4------------3------3---------------------3-----3---2--|
|-------2-----------------------0------4-----------4------4---------4-----------4---4------2--|
|-4-5------------------------2--------4----------4------4--------4---4--------4---------------|
|---------------------------3----------2---------2-----------------------------2--------------|
|-3---------2---------------------------------------------------------------------------------|

Verse 2:

Haven't you felt by now, just what it's like to be loved
|---2-------0------0-------0---------2--------0-------2--2----0----0------------|
|-3-3--2---2--0---0--2---2---------3---2----2-------3--3----3----3--------------|
|-2-2--2---2--2---2--2---2-------2-----2----2-----------------------------------|
|-0----0-0----0-0----0-0-------0-------0--0-------------------------------------|
|-------------------------------------------------------------------------------|
|------------------------------------------------------3----------3--3----------|

Knowing that certain touch, when you should
|--------------------2---------------------2--------------------2-----|
|-----------3--3-----------3-------3------3----2---2---2-----2--------|
|---------2----------------2---2---2--2--------2---2---2-----2--------|
|-------------------------------------------------2--2----2----2------|
|---------------2-2--------2-------2---------4----------4--4----------|
|-3-2-0---------------------------------------------------------------|

Time will give you all, you bring out all the best in me
|-------------0--------0-------2---2---------------------2------------------------|
|------1---1------1------1----3---3------------------2--2-----3--2----------------|
|------0----------0------------2---2-------2--2------2--------2-----4--2----------|
|------2----------2------------4-----------4--4-------2--------4------------------|
|--0--0-----------0-0---------2-2------2----------4-----------2-------------------|
|---------------------------------------------------------------------------------|

I wanna hold you ‘till you feel the need, somehow, you should know by now
|-------------------2--------0------------------------2-5-----------------|
|--2--3--3----3---3---2-------0--------------3-5----------------3---------|
|--4--4--4----2--------2-------------------2-------------------0----------|
|--4--4--4-------------2-----------------4-------------------4------------|
|------2-------2--------4--------------2-------------------0--------------|
|--2------2---------------------------0-----------------------------------|

Bridge:
|---------3------2-------0---------3-2-----------------|
|----------------------3---------------------3---------|
|-----0------0-----0-----------0--------0-----0--------|
|------------------------------------------------------|
|--3--------------------------3------------------------|
|------------------------------------------------------|


If I could just find the words, I wouldn't be left so lonely
|-------------5------------------------7----------------------3----------------5-------------|
|----------5-----5------------------7-------7--------------3---3----------------5------------|
|------6------------6------------7-------7----7---------4--------4----------------------2----|
|--4---------------------4---5------------------5-----2-------------2-----------------2---2--|
|-----------------------------------------------------------------------------7-------0------|
|---------------------------------------------------------------------------5----------------|

You're my one and only, and I'll show you how
|-----------------------------------------------------0-----------0------------------|
|-------1--0----------3-------------0----------3------3--------------------------3---|
|----0-------------0-----0--------0------------2--------2---2--------2-2----2--0-----|
|----------------2---------------0--------------4-------------0-------0--------------|
|-0---------------------------------------0-2--2------------------------------2---3--|
|------------------------------3-----------------------------------------------------|

Every move as smooth as silk, say you will, say you will
|--------------2---------0-------------------------------------------------------------------7--|
|--------0-2-----3-----------3----2-----3-0-----------------------0-1-0-------2--4--5---8-------|
|-------------------------2---2----2--2-------------4----------------------2----2--4--5---7-----|
|-----0------------------------------------------0-2------------3-------------------------------|
|----------------------2------2----2--------------------------3------------------2--4--5---0----|
|--3--------------------------------------------------------1-----------------------------------|

Pre-Solo:
|-------------7--------------------|
|-----8----8-------------8---------|
|--------7----------7--------------|
|--7--------------7---7------------|
|----------------------------------|
|----------------------------------|

Solo:
|-------0-0/2----5—5/2--0--7--------------------------------|
|----3-----------------------------7/5--3---2-3-2-----------|
|-2--------------------------------------------------2------|
|--------------------------------------------------4--------|
|-----------------------------------------------------------|
|-----------------------------------------------------------|

|-----0—0/2-5-4/2-0----9---------------------------------------|
|---3----------------------10---7/5-3--2-3-2-------------------|
|-2------------------------9-----------------------2h4-2-------|
|-------------------------------------------------4------------|
|--------------------------------------------------------------|
|--------------------------------------------------------------|


Verse 3:

Hasn't it crossed your mind, haven't you know all the time
|----2-------0--------0-------0---------2------0-------2---0--0---------|
|-3--3--2---2---0---0--2----2-----3--3--2---2-------3---3---3-----------|
|-2--2--2---2---2---2--2----2-----2--2--2---2---------------------------|
|-0-----0-0-----0-0-----0-0-------0------0-0----------------------------|
|-----------------------------------------------------------------------|
|----------------------------------------------------2-3-----3----------|
Honestly tell me now, has it shown
|-------------------------------------------2------------------2--------|
|------------------5---2------------3------3-----2--2---2---2-----------|
|------------------5---2--------------4----4-----2--2---2---2-----------|
|-------------------------------------------4-----2--2---2---2----------|
|------------------7-----------2-----------2---4--------4---------------|
|-3-2-0—2-3--------2----2-----------------------------------------------|


How much love has grown, the way I trembled at the sight of you
|----------------------0-2------------------2------------2-----------------5--7-------|
|-------------------3----------------3--------3------2---2---3-5---5h7--5--5----------|
|-------4-5-2---5----------------4-------------4----2--2---2--4--4--4-----------------|
|------------------------------------------------------2--2---4--6--6--6--------------|
|---0-------------------------------------------------4-------2--4--4--4--------------|
|-2---------------------------3----------3--------------------------------------------|


I want to learn to love you through and through this I vow, you should know by now
|-------------4/5--7--8-----8/7---5-3----2-3-3/5--------2-5------------------------|
|--2--3--2--------------------------------------------3-5----------------3---------|
|--2--2--2--------------------------------------------------------------0----------|
|--2--4--2---6/8—9 10—10/9----------4-5-5/7--2--------------4----------------------|
|--4--2--4---------------------------------------------------------0---------------|
|----------------------------------------------------------------------------------|


Ending:

You should know by know…
|---------3--2------0--------3-2-----3-2p0---|-------3---2-----0-------3---2---0----------|
|------------------3---------------------------3-|----------------3--------------------3--|
|------0---0---0----------0------0-------------|-----0---0---0---------0---0---0----------|
|-------------------------------------------------|---------------------------------------|
|---3-------------------3------------------------|--3------------------3------------------|
|-------------------------------------------------|---------------------------------------|

|-7-8-7-5—8-5--------3----2------0-------------------|-----------------0-2-3-------------|
|------------------------------------3------0/1-0---------|-----------2------------------|
|-----------------------0---0-----0---------------1/2-0--|--------2----------------------|
|-----------------------------------------------------------|--4-5--------0--------------|
|---------------------3-------------------------------------|----------------------------|
|-----------------------------------------------------------|--3--------3----------------|

|----------3---------------------0-----------|
|--------3---3----------------0--------------|
|------0-------0------------0----------------|
|----2--------------------2------------------|
|--3--------------------3--------------------|
|---------------------0----------------------|

Ren, tenkyu beri mats... Di ko tinab to kung wala ka... :)
Добавлено: 22.06.2012
Другие материалы по этой песне:
  • Аккорды и текст

Страница создана 22.06.2012
http://primanota.ru/dingdong-avanzado/you-should-know-by-now-chords.htm
Привет, Гость.
Предлагаем пройти революционный курс по гитаре.
Подарок от PrimaNota.Ru, забирай!