PrimaNota.ru - самый крупный в мире бесплатный архив песенных текстов, аккордов, табулатур и нот


Dinand - Dreamer Gussies Song - аккорды и текст, видео

Регистрация Запомнить меня
Войти через:  Facebook Google Twitter Vk Yandex Mail.ru

Dinand - Dreamer Gussies Song - аккорды и текст, видео

Печатать
Просмотров: 75
Уроки эстрадного вокала в Санкт-Петербурге
Dreamer Gussies Song
Dinand
This is the song Dinand wrote specially for Gussie after she left this
world...

The best way to play this song is to tune your guitar half a note lower.

Artist: Dinand
Song: Dreamer (Gussie's song)
Album: none

Submitted by: Dave Bremer

INTRO:
    G                 Am add2              G               Am add 2
||---x-------x------|-------3-x----x--|-x---------x---x-|--x--------x--x-||
||---x-------x------|----0----x----x--|-x---------x---x-|--x--------x--x-||
||---0-------0---0--|-0-------0----0--|-0---------0---0-|--0--------0--0-||
||---0-------0---0--|-2-------2----2--|-0---------0---0-|--2--------2--2-||
||---2-------2---2--|-0-------3----3--|-2---------2---2-|--0--------3--3-||
||---3-------3---3--|-x-------x----x--|-3---------3---3-|--x--------x--x-||

    G                    Am add 2         C add2            D
||---x-------x------|-x-------x----x--|-x---------x--x--|--x--------x--x--|
||---x-------x------|-x-------x----x--|-x---------x--x--|--x--------x--x--|
||---0-------0---0--|-0-------0----0--|-0---------0--0--|--0--------0--0--|
||---0-------0---0--|-2-------2----2--|-2---------2--2--|--4--------4--4--|
||---2-------2---2--|-0-------0----0--|-3---------3--3--|--5--------5--5--|
||---3-------3---3--|-x-------x----x--|-x---------x--x--|--x--------x--x--|

   G                     Am7 add 2        C add2            D
|----x-------x------|-x-------x----x--|-x---------x--x--|--x--------x--x--|
|----x-------x------|-x-------x----x--|-x---------x--x--|--x--------x--x--|
|----0-------0---0--|-0-------0----0--|-0---------0--0--|--0--------0--0--|
|----0-------0---0--|-2-------2----2--|-2---------2--2--|--4--------4--4--|
|----2-------2---2--|-0-------0----0--|-3---------3--3--|--5--------5--5--|
|----3-------3---3--|-x-------x----x--|-x---------x--x--|--x--------x--x--|


  C add2               D                  Em                 G
|--x---------x--x--|--x--------x--x--|-x---------x--x--|--x--------x--x---|
|--x---------x--x--|--x--------x--x--|-x---------x--x--|--x--------x--x---|
|--0---------0--0--|--0--------0--0--|-0---------0--0--|--0--------0--0---|
|--2---------2--2--|--4--------4--4--|-5---------5--5--|--0--------0--0---|
|--3---------3--3--|--5--------5--5--|-7---------7--7--|--2--------2--2---|
|--x---------x--x--|--x--------x--x--|-0---------0--0--|--3--------3--3---|


   Cadd2              C idem         D             D
|-x---------x--x--|---------|--x--------x--x--|----------||
|-x---------x--x--|---------|--x--------x--x--|----------||
|-0---------0--0--|---------|--0--------0--0--|----------||
|-2---------2--2--|---------|--4--------4--4--|----------||
|-3---------3--3--|---------|--5--------5--5--|----------||
|-x---------x--x--|---------|--x--------x--x--|----------||

Chorus Am   | C  | G  | D (sus2) | Am | C | D   |
     
Добавлено: 17.08.2013
Другие материалы по этой песне:
  • Аккорды и текст

Страница создана 17.08.2013
http://primanota.ru/dinand/dreamer-gussies-song-chords.htm
Привет, Гость.
Предлагаем пройти революционный курс по гитаре.
Подарок от PrimaNota.Ru, забирай!