PrimaNota.ru - самый крупный в мире бесплатный архив песенных текстов, аккордов, табулатур и нот


Dimmu Borgir - Spellbound - таба, видео

Регистрация Запомнить меня
Войти через:  Facebook Google Twitter Vk Yandex Mail.ru

Dimmu Borgir - Spellbound - таба, видео

Печатать
Просмотров: 304
Band – Dimmu borgir
Song – Spellbound
Album – Enthrone Darkness Triumphant
Tabbed by - lxgrimmxl

. - palm mute                   / - slide up to
\ - slide down to               ~ - vibrato
h - hammer on                   b - bend
p - pull off                   Suffixes for bend
ph - pinch harmonic             f - full bend    h - half bend
r - release                     t - tap bend
X - percussion mute             ~ - vibrato bend
@ - slight palm mute           () - ghost note, sustained note

This is my first tab, and I hope that it is 100% correct, 
But I know that it's better than the other two tabs on the net
I spent a lot of time to get it as close as I could, since 
all found is the same tab in every site so I just worked on it myself. 

Any comments or corrections email me at lxgrimmxl@yahoo.com

Tune Guitar to E A D G B E

Riff 1
e|----------------|
B|----------------|
G|----------------| 4x
D|---6-----7-6-4--|
A|---4-----5-4-2--|
E|----------------|
           . . .

Riff 2
e|------------------------------------------------|
B|------------------------------------------------|
G|------------------------------------------------|
D|---------6-------6--------6--------6----7-6-4-6-| x4
A|-44444444444444444444444444444444444----5-4-2-4-|
E|------------------------------------------------|
   ........ ....... ........ ........      

Riff 3
e|------------------------------------------------|
B|------------------------------------------------|
G|------------------------------------------------|
D|----------------------------------------7-6-4-6-| x4
A|-44444444444444444444444444444444444----5-4-2-4-|
E|------------------------------------------------|
   ...................................      

Riff 4
|------------------------------------------|
|------------------------------------------|
|------------------------------------------|
|-------5-4-------5-4--------5-4-------5-4-| x3
|-------7-6-------6-7--------7-6-------6-7-|
|-0-0-0-----0-0-0------0-0-0-----0-0-0-----|
  . . .     . . .      . . .     . . .      

Riff 5
|------------------|
|------------------|
|------------------|
|------------------| x4
|------3-2-33333-6-|
|-0000-------------|
  ....     .....

Riff 6
|------------------------------------------|
|------------------------------------------|
|------------------------------------------|
|-------5-4-------5-4--------5-4-------5-4-| x2
|-------7-6-------6-7--------7-6-------6-7-|
|-0-0-0-----0-0-0------0-0-0-----0-0-0-----|
  . . .     . . .      . . .     . . .      

Riff 7a
e|------------------------|
B|------------------------|
G|------------------------|  
D|------------------------| x1 mute after each note 
A|-2--3--2--3--2--3--2--3-|
E|-0--1--0--1--0--1--0--1-|

Riff 7b
e|------------------------|
B|------------------------|
G|------------------------|  
D|------------------------| x1
A|-2--3--2--3--2--3--2--3-|
E|-0--1--0--1--0--1--0--1-|

Riff 8 
|------|-----------------------------|
|------|-----------------------------|
|------|-----------------------------|
|--x1--|-----------------------------| x1
|------|-6------7------6------7------|
|-4444-|-4-4444-5-5555-4-4444-5-5555-|
  ....     ....   ....   ....   ....

|------------------------|
|------------------------|
|------------------------|
|------------------------| x1
|-6------7------6------7-|
|-4-4444-5-5555-4-4444-5-|
    ....   ....   .... 

Riff 9a
e|------------------------|
B|------------------------|
G|------------------------|  x1 mute after each note
D|------------------------|  let last note ring out
A|-2--3--2--3--2--3--2--3-|
E|-0--1--0--1--0--1--0--1-|

Riff 9b
e|------------------------|
B|------------------------|
G|------------------------|  
D|------------------------| x1
A|-2--3--2--3--2--3--2--3-|
E|-0--1--0--1--0--1--0--1-|

Riff 10
e|----------------|
B|----------------|
G|----------------| x4
D|-6-6-6--6-6-7---|
A|-4-4-4--4-4-5---|
E|----------------|
   . .    . .   

Riff 11
e|-------------------|
B|-------------------|
G|-------------------| x12
D|-6---2---5---7-6---|
A|-6---2---5---5-4---|
E|-4---0---3---5-4---|

Keyboard solo

Riff 12
e|--------------|
B|--------------|
G|--------------| 
D|-7--5--3--5---| x4
A|-7--5--3--5---|
E|-5--3--1--3---|


Riff 13
|-------------------------------------------------------|
|----------------------/10-8-----8-----8--10-8----------|
|---9-7-5-7-9---9-7-5----------9-----9---------10-9-7-5-|
|-7-----------7--------------7-----7--------------------| play till fade-out
|-------------------------------------------------------|
|-------------------------------------------------------|

Добавлено: 05.03.2012
Другие материалы по этой песне:
  • Аккорды и текст

Страница создана 05.03.2012
http://primanota.ru/dimmu-borgir/spellbound-chords.htm
Привет, Гость.
Предлагаем пройти революционный курс по гитаре.
Подарок от PrimaNota.Ru, забирай!