PrimaNota.ru - самый крупный в мире бесплатный архив песенных текстов, аккордов, табулатур и нот


Dimmu Borgir - guds fortapelse - текст песни, видео

Регистрация Запомнить меня
Войти через:  Facebook Google Twitter Vk Yandex Mail.ru

Dimmu Borgir - guds fortapelse - текст песни, видео

Печатать
Просмотров: 114
Уроки эстрадного вокала в Санкт-Петербурге
DIMMU BORGIR
Guds Fortapelse - Apenbring Av Dommedag from album Stormblast

Legend
/ - slide
h - hammer on
p - pull off
PM - palm mute

Riff 1
E-|-------------------------------------------------|
B-|-------------------------------------------------|
G-|-------------------------------------------------|
D-|--------------------------5-7-8-777777-----------|
A-|-----------------5555-7-8------------------------|
E-|--5555555555-7-8---------------------------------|

Riff 2
E-|-------------------------------------------------|
B-|-------------------------------------------------|
G-|-------------------------------------------------|
D-|--999999-555555-77777777777777-------------------|
A-|--777777-333333-55555555555555-------------------|
E-|-------------------------------------------------|

Riff 3 I'm not sure
E-|-------------------------------------------------|
B-|-------------------------------------------------|
G-|-------------------------------------------------|
D-|-----------777-----------------------------------|
A-|--777777555----333333555555----------------------|
E-|-------------------------------------------------|

Riff 4
E-|-------------------------------------------------|
B-|-------------------------------------------------|
G-|-------------------------------------------------|
D-|--555555444444-----------------------------------|
A-|--333333222222555555777444-----------------------|
E-|--------------333333555222-----------------------|

Riff 1
Riff 2
Riff 3
Riff 4

Riff 5 This can be wrong
E-|-----------------------------------------------|
B-|-----------------------------------------------|
G-|-----------------------------555555444---------|
D-|--99-77----99-77----99-77-------------555------|
A-|--77-55-77-77-55-77-77-55-77-------------------|
E-|--------55-------55-------55-------------------|

Riff 4
Добавлено: 22.02.2014
Другие материалы по этой песне:
  • Текст (слова)

Страница создана 22.02.2014
http://primanota.ru/dimmu-borgir/guds-fortapelse-lyrics.htm
Привет, Гость.
Предлагаем пройти революционный курс по гитаре.
Подарок от PrimaNota.Ru, забирай!