PrimaNota.ru - самый крупный в мире бесплатный архив песенных текстов, аккордов, табулатур и нот


Dimmu Borgir - Dreamside Dominions - аккорды и текст, таба, бас-таба, видео

Регистрация Запомнить меня
Войти через:  Facebook Google Twitter Vk Yandex Mail.ru

Dimmu Borgir - Dreamside Dominions - аккорды и текст, таба, бас-таба, видео

Печатать
Просмотров: 169
Dreamside Dominions
Dimmu Borgir
Dimmu Borgir - Dreamside Dominions

>From the Album: Spiritual Black Dimensions
Transcribed by: Arto Цsтеrmаn
E-mail: thornofsin@hotmail.com
Website: http//www.geocities.com/artsi666

Tuning: Standard
Marking:
Palm Mute: ...
Let Ring: l


Riff 1:
|---------------------------------------------------------------------------------
|---------------------------------------------------------------------------------
|---------------------------------------------------------------------------------
|-----------------------------------------------------7-7777-7-7777-7-7777-7-7777-
|--7-7777-7-7777-7-7777-7-7777--3-3333-3-3333-3-3333--5-5555-5-5555-5-5555-5-5555-
|--5-5555-5-5555-5-5555-5-5555--1-1111-1-1111-1-1111------------------------------

      -------------------------------------------|
      -------------------------------------------|
      -------------------------------------------|
      --9-9999-9-9999-9-9999-9-9999--------------|
      --7-7777-7-7777-7-7777-7-7777--------------|
      -------------------------------------------|


Riff 2:
|-----------------------------------------------------------|
|-----------------------------------------------------------|
|-----------------------------------------------------------|
|-5-5555-5-5555-5-5555-5-5555-------------------------------|
|-3-3333-3-3333-3-3333-3-3333--6-6666-6-6666-6-6666-6-6666--|
|------------------------------4-4444-4-4444-4-4444-4-4444--|


Riff 1 again...
Riff 2 again...


Riff 3:
|----------------------------|
|----------------------------|
|----------------------------|
|-5--4--5--------5--4--9--3--|
|-3--2--3--6--5--3--2--7--1--|
|----------4--3--------------|
  l  l  l  l  l  l  l  l  l

Riff 4:
|-----------------------------------------------------------------|
|-----------------------------------------------------------------|
|-----------------------------------------------------------------|
|-5-55-5--4-44-4--5-55-5----------5-55-5--4-44-4--9-99-9--3-33-3--|
|-3-33-3--2-22-2--3-33-3--666666--3-33-3--2-22-2--7-77-7--1-11-1--|
|-------------------------444444----------------------------------|
    ..      ..      ..    ......    ..      ..      ..      ..


Riff 5:
|------------------------------------------------------|
|------------------------------------------------------|
|------------------------------------------------------|
|-----------6------------6-----------6--666666-222222--|
|-------7-6----------7-6---------7-6-------------------|
|-4-444--------4-444-------4-444-----------------------|
    ... . .     

Sorry, no solo!
Добавлено: 12.07.2012
Другие материалы по этой песне:

Страница создана 28.02.2012
http://primanota.ru/dimmu-borgir/dreamside-dominions-chords.htm
Привет, Гость.
Предлагаем пройти революционный курс по гитаре.
Подарок от PrimaNota.Ru, забирай!